Song name
# A B C D E F G H I J K L M N O P Q R S T U V W X Y Z

Afterhours - Il Compleanno Di Andrea tab

Intro
  C9            D        Em7         D
|--------------------------------------------------------------|
|-3-----3-------7--------3-----3-----7-------------------------|
|----0------------0---------0-----------0----------------------|
|--------------------------------------------------------------|
|-3-------------5--------------------5-------------------------|
|------------------------0-------------------------------------|


strofa
   C9               Em7
|--------------------------------------------------------------|
|--0-----1---0------3------3-----7-----------------------------|
|-----2----------------0------------0--------------------------|
|--------------------------------------------------------------|
|--3-----------------------------5-----------------------------|
|-------------------0------------------------------------------| x2

   C9            Em7           C9             Em7
|-----------------------------------------------------------------|
|------------------------------0-----1---0----3-----3------7------|
|--------0--2----------0--2-------2--------------0------------0---|
|--2--4----------2--4---------------------------------------------|
|--3---------------------------3---------------------------5------|
|----------------0----------------------------0-------------------|
 (nella seconda strofa questo pezzo si ripete pił volte per poi tornare
  alla prima parte)

rit
  Am   C    D
|-0----0----2-------------------------|
|-1----1----3-------------------------|
|-2----0----2-------------------------|
|-2----2----0-------------------------|
|-0----3----x-------------------------|
|-x----x----x-------------------------|
Tap to rate this tab
 
# A B C D E F G H I J K L M N O P Q R S T U V W X Y Z