Song name
# A B C D E F G H I J K L M N O P Q R S T U V W X Y Z

Afterhours - Hai Paura Del Buio tab

Band: Afterhours

album: "Hai paura del buio?"

all tabbed by Damiano Fassari.


Track 01-"Hai Paura Del Buio?"

This Track in composed by only one riff that's played until the end.

e|-------|
B|-------|
G|---5-5-|
D|-3-5-5-|
A|-3-3-5-|
E|-1-3-3-|


Track 02-"1.9.9.6."


intro_part_I:

   A
e|---------------|
B|---------------|
G|-2-------------|
D|-2-------------|
A|-0-------------|
E|-0-------------|

intro:

|---------------------------------------------------------------------|
|---------------------------------------------------------------------|
|---------------------------------------------------------------------|
|-7-7-7-7-7-7-7-7--5-5-5-5-5-5-5-5--3-3-3-3-3-3-3-3--5-5-5-5--6-6-6-6-|
|-7-7-7-7-7-7-7-7--5-5-5-5-5-5-5-5--3-3-3-3-3-3-3-3--5-5-5-5--6-6-6-6-|
|-5-5-5-5-5-5-5-5--3-3-3-3-3-3-3-3--1-1-1-1-1-1-1-1--3-3-3-3--4-4-4-4-|

verse:

|---------------------------------------------------------------------|
|---------------------------------------------------------------------|
|-6-6-6-6-6-6-6-6--4-4-4-4-4-4-4-4--2-2-2-2-2-2-2-2--4-4-4-4--5-5-5-5-|
|-7-7-7-7-7-7-7-7--5-5-5-5-5-5-5-5--3-3-3-3-3-3-3-3--5-5-5-5--6-6-6-6-|
|-7-7-7-7-7-7-7-7--5-5-5-5-5-5-5-5--3-3-3-3-3-3-3-3--5-5-5-5--6-6-6-6-|
|-5-5-5-5-5-5-5-5--3-3-3-3-3-3-3-3--1-1-1-1-1-1-1-1--3-3-3-3--4-4-4-4-|

chorus:

  p.m
|--------------------------------------------|---------------------------------------------------|
|------------------7-7-7-7-----------7-7-7-7-|------------------7-7-7-7--------------------------|
|------------------7-7-7-7-----------7-7-7-7-|------------------7-7-7-7----------6---6---6---6---|
|-7-7-7-7-7-7-7-7--7-7-7-7--7-7-7-7--7-7-7-7-|-7-7-7-7-7-7-7-7--7-7-7-7--7-7-7-7---7---7---7---7-|
|-7-7-7-7-7-7-7-7--5-5-5-5--7-7-7-7--5-5-5-5-|-7-7-7-7-7-7-7-7--5-5-5-5--7-7-7-7-----------------|
|-5-5-5-5-5-5-5-5--5-5-5-5--5-5-5-5--5-5-5-5-|-5-5-5-5-5-5-5-5--5-5-5-5--5-5-5-5-----------------|

(the first part of the chorus is palm muting only the first time).


bridge:

|-----------------------------------------------------------------------|
|-----------------------------------------------------------------------|
|---------------------------------------------------5--4-5-4-5-4--4-5-4-|
|-7-7-7-7-7-7-7-7--5-5-5-5-5-5-5-5--3-3-3-3-3-3-3-3---------------------|
|-7-7-7-7-7-7-7-7--5-5-5-5-5-5-5-5--3-3-3-3-3-3-3-3---------------------|
|-5-5-5-5-5-5-5-5--3-3-3-3-3-3-3-3--1-1-1-1-1-1-1-1---------------------|


at the end of the song there is a small outro:

|-------|
|-15----|
|----14-|
|-------|
|-------|
|-------|

play it until the song is finished.


order:

-intro x2
-verse x2
-chorus
-bridge x2
-verse x2
-chorus
-bridge x2
-outro


Track 03-"Male Di Miele"

intro:

e|--------------------------------|
B|--------------------------------|
G|--------------------------------|
D|-7/-9-9-9-9-9--5-5-5-5-5--7-7-7-|
A|-7/-9-9-9-9-9--5-5-5-5-5--7-7-7-|
E|-5/-7-7-7-7-7--3-3-3-3-3--5-5-5-|

verse:

e|--------------------------------|
B|--------------------------------|
G|--------------------------------|
D|-7/-9-9-9-9-9--5-5-5-5-5--7-7-7-|
A|-7/-9-9-9-9-9--5-5-5-5-5--7-7-7-|
E|-5/-7-7-7-7-7--3-3-3-3-3--5-5-5-|

bridge:

|--------------------------------------|
|-9-9-9-9--12-12-12-12--15-15-15-15--9-|
|-9-9-9-9--12-12-12-12--15-15-15-15--9-|
|-9-9-9-9--12-12-12-12--15-15-15-15--9-|
|-7-7-7-7--10-10-10-10--11-11-11-11--7-|
|-7-7-7-7--10-10-10-10--11-11-11-11--7-|

chorus:

e|--------------------------------|
B|--------------------------------|
G|--------------------------------|
D|-7/-9-9-9-9-9--5-5-5-5-5--7-7-7-|
A|-7/-9-9-9-9-9--5-5-5-5-5--7-7-7-|
E|-5/-7-7-7-7-7--3-3-3-3-3--5-5-5-|

order:

-intro
-verse
-intro
-verse
-bridge
-chorus
-verse(the second time that this verse is played, you have to add 1 tone)
-bridge
-chorus


Track 04-"Rapace"


Guitar 1:

intro:

e|-----------|
B|-4----5--7-|
G|-4----5--7-|
D|-4----5--7-|
A|-2----3--5-|
E|-2----3--5-|

verse:

|-----------------------------------|
|-4-4-4-4-4-4-4-4--5-5-5-5--7-7-7-7-|
|-4-4-4-4-4-4-4-4--5-5-5-5--7-7-7-7-|
|-4-4-4-4-4-4-4-4--5-5-5-5--7-7-7-7-|
|-2-2-2-2-2-2-2-2--3-3-3-3--5-5-5-5-|
|-2-2-2-2-2-2-2-2--3-3-3-3--5-5-5-5-|

chorus:

|------------------------------------------|
|-12-12-12-12-12-12-12-12--9-9-9-9-9-9-9-9-|
|-12-12-12-12-12-12-12-12--9-9-9-9-9-9-9-9-|
|-12-12-12-12-12-12-12-12--9-9-9-9-9-9-9-9-|
|-10-10-10-10-10-10-10-10--7-7-7-7-7-7-7-7-|
|-10-10-10-10-10-10-10-10--7-7-7-7-7-7-7-7-|

bridge:

|-----------|
|-4----5--7-|
|-4----5--7-|
|-4----5--7-|
|-2----3--5-|
|-2----3--5-|

outro:

|-----------|
|-4----5--7-|
|-4----5--7-|
|-4----5--7-|
|-2----3--5-|
|-2----3--5-|

Guitar 2:

(in this song the second guitar plays like the first one,
unless during the second part of the verse and during the bridge).

during this two parts it plays like this:

e|-------------|
B|-3--5p3--0---|
G|-------------|
D|-------------|
A|-------------|
E|-------------|


order:

-intro x6
-verse x4
-chorus x4
-bridge x2
-verse x4
-chorus x4
-bridge x4
-verse x2
-chorus x4
-outro x13

and it finish with B


Track 05-"Elymania"

intro(x4):
e|--------------------------------------------|
B|--------------------------------------------|
G|-8-8-8-8--11-11-11-11-----------------------|
D|-8-8-8-8--11-11-11-11--11-11-11-11--9-9-9-9-|
A|-6-6-6-6---9--9--9--9--11-11-11-11--9-9-9-9-|
E|-6-6-6-6---9--9--9--9---9--9--9--9--7-7-7-7-|

verse = intro

chorus:

|----------------------------------|
|----------------------------------|
|-8-8-8--11-11-11------------------|
|-8-8-8--11-11-11--11-11-11--9-9-9-|
|-6-6-6---9--9--9--11-11-11--9-9-9-|
|-6-6-6---9--9--9---9--9--9--7-7-7-|

bridge:

|------------------------------------|
|------------------------------------|
|-8-8-8-8--------------------1-1-1-1-|
|-8-8-8-8--9-9-9-9--6-6-6-6--2-2-2-2-|
|-6-6-6-6--9-9-9-9--6-6-6-6--2-2-2-2-|
|-6-6-6-6--7-7-7-7--4-4-4-4--0-0-0-0-|

riff 1:

|----------------------------------|
|----------------------------------|
|------------------1-1-1-1-1-1-1-1-|
|-6-6-6-6-6-6-6-6--2-2-2-2-2-2-2-2-|
|-6-6-6-6-6-6-6-6--2-2-2-2-2-2-2-2-|
|-4-4-4-4-4-4-4-4--0-0-0-0-0-0-0-0-|

order:

-intro
-verse
-chorus
-bridge
-verse
-chorus
-bridge
-riff_1
-verse
-chorus
-bridge
-riff_1


Track 06-"Pelle"

verse:

e|-----------------|-----------------|-----------------|-----------------|
B|-----------------|-----------------|-----------------|-----------------|
G|-----------------|-----------------|-----------------|-----------------|
D|-7-7-7-7-7-7-7-7-|-5-5-5-5-5-5-5-5-|-4-4-4-4-4-4-4-4-|-5-5-5-5-5-5-5-5-|
A|-7-7-7-7-7-7-7-7-|-3-3-3-3-3-3-3-3-|-2-2-2-2-2-2-2-2-|-3-3-3-3-3-3-3-3-|
E|-5-5-5-5-5-5-5-5-|-3-3-3-3-3-3-3-3-|-2-2-2-2-2-2-2-2-|-3-3-3-3-3-3-3-3-|


Bridge is the same of the verse but it's played one time.


Chorus:

|-----------------|-----------------|
|-----------------|-----------------|
|-----------------|-----------------|
|-7-7-7-7-7-7-7-7-|-5-5-5-5-5-5-5-5-|
|-7-7-7-7-7-7-7-7-|-3-3-3-3-3-3-3-3-|
|-5-5-5-5-5-5-5-5-|-3-3-3-3-3-3-3-3-|


order:

-verse x2
-bridge
-verse x1
-chorus x4
-verse x2
-bridge
-verse x1
-chorus x4
-verse x2
-chorus x4

...and it finish with the same riff of the verse.


Track 07-"Dea"


intro:

e|--------------------|
B|--------------------|
G|--------------------|
D|-7-7-7-7-7-7--10-10-|
A|-7-7-7-7-7-7--10-10-|
E|-5-5-5-5-5-5---8--8-|

verse:

|--------------------|
|--------------------|
|--------------------|
|-7-7-7-7-7-7--10-10-|
|-7-7-7-7-7-7--10-10-|
|-5-5-5-5-5-5---8--8-|

bridge:

|------------------|
|------------------|
|-9-9-9-9-9-9------|
|-7-7-7-7-7-7-9b10-|
|------------------|
|------------------|

chorus:

|-----------------|-----------------|-------------------------|-------------------------|
|-----------------|-----------------|-------------------------|-------------------------|
|-----------------|-----------------|-------------------------|-------------------------|
|-----------------|-----------------|-------------------------|-------------------------|
|-7-7-7-7-7-7-7-7-|-7-7-7-7-7-7-7-7-|-10-10-10-10-10-10-10-10-|-10-10-10-10-10-10-10-10-|
|-5-5-5-5-5-5-5-5-|-5-5-5-5-5-5-5-5-|--8--8--8--8--8--8--8--8-|--8--8--8--8--8--8--8--8-|

|-----------------|-----------------|
|-----------------|-----------------|
|-----------------|-----------------|
|-----------------|-----------------|
|-7-7-7-7-7-7-7-7-|-7-7-7-7-7-7-7-7-|
|-5-5-5-5-5-5-5-5-|-5-5-5-5-5-5-5-5-|


order:

-intro x4
-bridge x4
-verse x8
-chorus x1
-intro x4
-verse x8
-chorus x1
-intro x4
-verse x8
-chorus x1
-intro x8


Track 08-"Senza Finestra"


verse:
                      x3                 x2
e|-----------------------|-----------------|
B|-----------------------|-----------------|
G|-10-13-12-15--15-15-15-|-13-13-13-13--12-|
D|-10-13-12-15--15-15-15-|-13-13-13-13--12-|
A|--8-11-10-13--13-13-13-|-11-11-11-11--10-|
E|--8-11-10-13--13-13-13-|-11-11-11-11--10-|


riff_1:

|-----------------------------|
|---------------------2-2-2-2-|
|------------1-1-1-1--2-2-2-2-|
|-6-6-6-6-6--2-2-2-2--2-2-2-2-|
|-6-6-6-6-6--2-2-2-2----------|
|-4-4-4-4-4--0-0-0-0----------|

riff_2:

|-------------------------|
|---2----2-2-2-2----------|
|---2----2-2-2-2--1-1-1-1-|
|-4-2-4--2-2-2-2--2-2-2-2-|
|-4---4-----------2-2-2-2-|
|-2---2-----------0-0-0-0-|

outro:

|-----------------|
|-2-2-2-2---------|
|-2-2-2-2---------|
|-2-2-2-2-3-3-3-3-|
|---------3-3-3-3-|
|---------1-1-1-1-|


order:

-verse x2
-riff_1 x4
-riff_2 x2
-verse x2
-outro

Track 09-"Simbiosi"

intro:

e|---------------|---------------|
B|---------------|---------------|
G|---------3-3-3-|---------1-1-1-|
D|---1---3-------|---1---3-------|
A|-1---1---------|-1---1---------|
E|---------------|---------------|

verse:

|----------------------|
|----------------------|
|-3-3-3-3-3--1-1-1-1-1-|
|-1-1-1-1-1--1-1-1-1-1-|
|----------------------|
|----------------------|

This song hasn't an order but it's based on this two riffs (intro and verse)


Track 10-"Voglio Una Pelle Splendida"

riff_1:

e|----------------------------------------------|
B|----------------------------------------------|
G|----------------------------------------------|
D|----------12----12----------------------------|
A|-10-10-10----10----10----10----10----10----10-|
E|----------------------12----12----12----12----|


riff_2:

|--------------------------|--------------------------|
|--------------------------|--------------------------|
|-12-12--12-12-12-12-12-12-|-14-14--14-14-14-14-14-14-|
|-12-12--12-12-12-12-12-12-|-14-14--14-14-14-14-14-14-|
|-10-10--10-10-10-10-10-10-|-12-12--12-12-12-12-12-12-|
|-10-10--10-10-10-10-10-10-|-12-12--12-12-12-12-12-12-|

riff_3:

|-------------------------|----------------------------|
|-------------------------|----------------------------|
|-12-12-12-12-12-12-12-12-|-12-12-12-12-12-12-12-12----|
|-12-12-12-12-12-12-12-12-|-12-12-12-12-12-12-12-12-14-|
|-10-10-10-10-10-10-10-10-|-10-10-10-10-10-10-10-10-14-|
|-10-10-10-10-10-10-10-10-|-10-10-10-10-10-10-10-10-12-|


order:

-riff_1 x8
-riff_2 x4
-riff_3 x1
-riff_1 x12
-riff_2 x2
-riff_3 x1
-riff_1 x12
-riff_2 x1
-riff_3 x1

...and then play the riff_1 until the end of the song.

Track 11-"Terrorswing"

riff_1:

e|-------------------------|
B|-------------------------|
G|-------------------------|
D|-9-9-12-12-12-12-9-9-9-9-|
A|-9-9-12-12-12-12-7-7-7-7-|
E|-7-7-10-10-10-10-7-7-7-7-|

This track is composed by only one riff.


Track 12-"Lasciami Leccare L'Adrenalina"


riff_1:

e|------------------------------|
B|------------------------------|
G|----------------5-5-5-5-5-5-5-|
D|-4-4-4-4-5-5-5--5-5-5-5-5-5-5-|
A|-4-4-4-4-5-5-5--3-3-3-3-3-3-3-|
E|-2-2-2-2-3-3-3--3-3-3-3-3-3-3-|

riff_2:

|---------------------------------------------|---------------------------|
|---------------------------------------------|-4-4-4--5-5-5--------------|
|-7-7-7-7-7-7-7-7-7-7-7-7-7-7-7-7-7-7-7-7-7-7-|-4-4-4--5-5-5--------------|
|-7-7-7-7-7-7-7-7-7-7-7-7-7-7-7-7-7-7-7-7-7-7-|-4-4-4--5-5-5--5-5-5-5-5-5-|
|-5-5-5-5-5-5-5-5-5-5-5-5-5-5-5-5-5-5-5-5-5-5-|-2-2-2--3-3-3--5-5-5-5-5-5-|
|-5-5-5-5-5-5-5-5-5-5-5-5-5-5-5-5-5-5-5-5-5-5-|-2-2-2--3-3-3--3-3-3-3-3-3-|

order:
-riff_1 x8
-riff_2 x1
-riff_1 x8
-fiff_2 x1



Track 13-"Punto G"


Verse_Type_1:

e|------------------|
B|------------------|
G|------------------|
D|-9-12-11--9-9-9-9-|
A|-9-12-11--9-9-9-9-|
E|-7-10--9--7-7-7-7-|


chorus:

|----------------------------------|
|----------------------------------|
|-9-9-9-9-9-9-9-9------------------|
|-9-9-9-9-9-9-9-9--9-9-9-9-9-9-9-9-|
|-7-7-7-7-7-7-7-7--9-9-9-9-9-9-9-9-|
|-7-7-7-7-7-7-7-7--7-7-7-7-7-7-7-7-|

Verse_Type_2:

|-------------------------|
|-------------------------|
|-------------------------|
|-9-9-9--7---9-9-9-9-9--7-|
|-9-9-9--7---9-9-9-9-9--7-|
|-7-7-7--5---7-7-7-7-7--5-|

In this song the verse is always alternate with chorus but from the 4th verse to the 
it change in verse_Type_2




Track 14-"Veleno"


riff_1:

e|--------------------------------------|
B|--------------------------------------|
G|--------------------------------------|
D|-9-9-9-9-9-9-9--7--9-9-9-9-9-9-9-9--7-|
A|-9-9-9-9-9-9-9--7--9-9-9-9-9-9-9-9--7-|
E|-7-7-7-7-7-7-7--5--7-7-7-7-7-7-7-7--5-|

riff_2:

|---------------------------------|
|---------------------------------|
|-----------------7-7-7-7-9-9-9-9-|
|-9-9-9-9-9-9-9-9-7-7-7-7-9-9-9-9-|
|-9-9-9-9-9-9-9-9-5-5-5-5-7-7-7-7-|
|-7-7-7-7-7-7-7-7-5-5-5-5-7-7-7-7-|

chorus:

|--------------------------------------------------------------------|
|--------------------------------------------------------------------|
|------------------9-9-9-9-9-9-9-9-------------------9-9-9-9-9-9-9-9-|
|-9-9-9-9-9-9-9-9--9-9-9-9-9-9-9-9--7-7-7-7-7-7-7-7--9-9-9-9-9-9-9-9-|
|-9-9-9-9-9-9-9-9--7-7-7-7-7-7-7-7--7-7-7-7-7-7-7-7--7-7-7-7-7-7-7-7-|
|-7-7-7-7-7-7-7-7--7-7-7-7-7-7-7-7--5-5-5-5-5-5-5-5--7-7-7-7-7-7-7-7-|

order:

-riff_1 x10
-chorus x4
-riff_1 x10
-chorus x4
-riff_2 x4
-chorus x4
-riff_2 until the end off the song

Track 15-"Come Vorrei"


This song is composed by two chord: F and C but the main instrument is the violin so 
the guitar is not easy.

Track 16-"Questo Pazzo Pazzo Mondo Di Tasse"


riff_1:

e|----------|
B|------9---|
G|------9-7-|
D|-10-9-9-7-|
A|-10-9-7-5-|
E|--8-7-7-5-|

This song is made of one simple riff.


Track 17-"Musicista Contabile"

riff_1:

e|---2--2--2--2---0--0--0--0-|
B|--------------1--1--1--1---|
G|---------------------------|
D|-0--0--0--0----------------|
A|---------------------------|
E|---------------------------|

riff_2:

|-----------------------------|
|---2-----2-----2------0------|
|-2---2-2---2-2---------------|
|------------------3--------3-|
|----------------4---4--4-4---|
|-----------------------------|

riff_3:

|---6---6---6---6---6---2---|
|-7---7---7---7---7---7-3---|
|-6---6---6---6---6---6-2---|
|---------------------------|
|---------------------------|
|---------------------------|


Track 18-"Sui Giovani D'Oggi Ci Scatarro Su"


riff_1:

e|--------------------|
B|-11--9--12-12-12-12-|
G|-11--9--12-12-12-12-|
D|-11--9--12-12-12-12-|
A|--9--7--10-10-10-10-|
E|--9--7--10-10-10-10-|


riff_2:

|------------------------------------------------------------------|
|----------------------------------7-7-7-7-7-7-7-7-7-7-7-7-7-7-7-7-|
|----------------------------------7-7-7-7-7-7-7-7-7-7-7-7-7-7-7-7-|
|-7-7-7-7-7-7-7-7-7-7-7-7-7-7-7-7--7-7-7-7-7-7-7-7-7-7-7-7-7-7-7-7-|
|-7-7-7-7-7-7-7-7-7-7-7-7-7-7-7-7--5-5-5-5-5-5-5-5-5-5-5-5-5-5-5-5-|
|-5-5-5-5-5-5-5-5-5-5-5-5-5-5-5-5--5-5-5-5-5-5-5-5-5-5-5-5-5-5-5-5-|

riff_3:

|---------------------------------|
|---------------------------------|
|-4-4-4-4-4-4-4-4-4-4-4-4-4-4-4-4-|
|-4-4-4-4-4-4-4-4-4-4-4-4-4-4-4-4-|
|-2-2-2-2-2-2-2-2-2-2-2-2-2-2-2-2-|
|-2-2-2-2-2-2-2-2-2-2-2-2-2-2-2-2-|


order:

-riff_1 x12
-riff_2 x2
-riff_3 x2
-riff_1 x8
-riff_2 x2
-riff_3 x2
-riff_1 x8
-riff_2 x2
-riff_3 x2
-riff_1 x16

Track 19-"Mi Trovo Nuovo"


This song is the last and it's made by two chords: B and F#.





This is a particular album because
some song hasn't a particular order
and someone else are only instrumental
but all of them are easy to play...so
I hope you enjoy this tabs...


...for any questions damiuzz@yahoo.it
Tap to rate this tab
# A B C D E F G H I J K L M N O P Q R S T U V W X Y Z