Guitaretab - guitar tabs
Song name
# A B C D E F G H I J K L M N O P Q R S T U V W X Y Z

Against All Authority - Livin In Miami tab

-----------------------------------------------------------------
Everyday's A Saturday - Bowling For Soup
-----------------------------------------------------------------
Tabbed by: Bair
Email: bair_morritt@hotmail.com

Tuning: Standard

**Another song from "All The Punk Fit To Print". Only 1:56 minutes long, thats why its short**

Intro:
e|------------------------------------------|
B|------------------------------------------|
G|--2---2---2---9999--7777------------------|
D|--2---2---2---9999--7777------------------|
A|--0---0---0---7777--5555------------------|
E|------------------------------------------|

Verse/ Main Riff:
e|---------------------------------------------|
B|---------------------------------------------|
G|--2-----2--4--77--6--4--2--------9999--7777--|
D|--2--2--2--4--77--6--4--2--(X3)--9999--7777--| X4
A|--0--2--0--2--55--4--2--0--------7777--5555--|
E|-----0---------------------------------------|

Chorus:
e|-------------------------------------------|
B|-------------------------------------------|
G|--22222222--77777777--99999999--7777-------|
D|--22222222--77777777--99999999--7777-(X2)--|
A|--00000000--55555555--77777777--5555-------|
E|-------------------------------------------|

Main Riff:
e|---------------------------------------------|
B|---------------------------------------------|
G|--2-----2--4--77--6--4--2--------9999--7777--|
D|--2--2--2--4--77--6--4--2--(X3)--9999--7777--| X2
A|--0--2--0--2--55--4--2--0--------7777--5555--|
E|-----0---------------------------------------|
[ Tab from: http://www.guitaretab.com/a/against-all-authority/115806.html ]
Verse:
e|---------------------------------------------|
B|---------------------------------------------|
G|--2-----2--4--77--6--4--2--------9999--7777--|
D|--2--2--2--4--77--6--4--2--(X3)--9999--7777--| X4
A|--0--2--0--2--55--4--2--0--------7777--5555--|
E|-----0---------------------------------------|

Chorus:
e|-------------------------------------------|
B|-------------------------------------------|
G|--22222222--77777777--99999999--7777-------|
D|--22222222--77777777--99999999--7777-(X2)--|
A|--00000000--55555555--77777777--5555-------|
E|-------------------------------------------|

Main Riff:
e|---------------------------------------------|
B|---------------------------------------------|
G|--2-----2--4--77--6--4--2--------9999--7777--|
D|--2--2--2--4--77--6--4--2--(X3)--9999--7777--| X2
A|--0--2--0--2--55--4--2--0--------7777--5555--|
E|-----0---------------------------------------|

Outro:
e|------------------------------------------|
B|------------------------------------------|
G|--2---2---2---9999--7777---2--------------|
D|--2---2---2---9999--7777---2--------------|
A|--0---0---0---7777--5555---0--------------|
E|------------------------------------------|

--------------------------------------------------------------
Lyrics:

He didnt fit in, he always felt rejected.
His father him him and made him feel infected.
He got a bottle it seemed to take the pain away.
Only 15, but he didnt know any other way.
Always searchin, never felt like he belonged.
Always hurtin, always told that he was wrong.
He left home, the streets looked safer.
All alone, except a court of Schaffer.
All alone, with no where to go.
He feels at home at the punk rock show.
And when hes hangin out with his crew.
Livin on the streets of Miami.
Hed rather die than go home to his family.
Thats what he'll do.
He doesnt want you pity.
Miami can be a cruel city.
Hes always ready for a fight.
He doesnt want you sorrow.
Dont wanna think about tomorrow.
He only wants to make it through the night.
Related for Livin In Miami tab