Song name
# A B C D E F G H I J K L M N O P Q R S T U V W X Y Z

Against All Authority - Ugly Desires tab

Against All Authority - Ugly Desires
 Tabbed by jimmyt109@gmail.com

Intro/Bridge:
e--------------------------------------------------------------------|
b--------------------------------------------------------------------|
g-----------------8-88-8--7-77-7------------------8--7--5--5--8--7---|
d-7-77-7--7-77-7--8-88-8--7-77-7--7-77-7--7-77-7--8--7--5--5--8--7---|
a-7-77-7--7-77-7--6-66-6--5-55-5--7-77-7--7-77-7--6--5--3--3--6--5---|
D-5-55-5--5-55-5------------------5-55-5--5-55-5---------------------| x2

Verse:
e--------------------------------------------------------------------|
b--------------------------------------------------------------------|
g-----------------5-55-5------8-7------------------5-55-5------------|
d-7-77-7--7-77-7--5-55-5--5-5-8-7--7-77-7--7-77-7--5-55-5--5-55-5----|
a-7-77-7--7-77-7--3-33-3--5-5-6-5--7-77-7--7-77-7--3-33-3--5-55-5----|
D-5-55-5--5-55-5----------3-3------5-55-5--5-55-5----------3-33-3----| x2

Chorus:
e--------------------------------------------------------------------|
b--------------------------------------------------------------------|
g---8-7-----8-7-----8-7----------------------------------------------|
d-7-8-7-7-7-8-7-7-7-8-7-5-55-5---------------------------------------|
a-7-6-5-7-7-6-5-7-7-6-5-5-55-5---------------------------------------|
D-5-----5-5-----5-5-----3-33-5---------------------------------------| x4

Post Chorus:
e--------------------------------------------------------------------|
b--------------------------------------------------------------------|
g----------------------------5-------------------5-55-5-----5--------|
d-7-77-7--7-77-7--5-55-5--5-55-5-7-77-7--7-77-7--5-55-5--5-55-5------|
a-7-77-7--7-77-7--5-55-5--5-33-5-7-77-7--7-77-7--3-33-3--5-33-5------|
D-5-55-5--5-55-5--3-33-3--3-3--3-5-55-5--5-55-5----------3-3--3------|

Song order:
 Intro
 Verse
 Chorus
 Post Chorus
 Verse
 Chorus
 Post Chorus
 Bridge
 Verse
 Chorus
Tap to rate this tab
 
# A B C D E F G H I J K L M N O P Q R S T U V W X Y Z