Guitaretab - guitar tabs
Song name
# A B C D E F G H I J K L M N O P Q R S T U V W X Y Z

Against All Authority - Daddys Little Girl tab

Against all Authority.
Daddy's Little Girl.

Verse:

e  ---------------------------|
B  ---------------------------|
G  --------5555---55----------|
D  ---33---5555---55---3333---|    X 4
A  ---33---3333---33---3333---|
E  ---11---------------1111---|


e  ----------8𨃌8----88-8-8-8-8--|
B  ------10-𨃌𨃌----88-10-10-10-10-|
G  ---10-----9𨖹9----99-10-10-10-10-|
D  --------------------------------------|       X 2
A  --------------------------------------|
E  --------------------------------------|

e  --------------------------|
B  --------------------------|
G  --------------------------|
D  ---77---8888---33---3333--|
A  ---77---8888---33---3333--|
E  ---55---6666---11---1111--|

e  --------------------------|
B  --------------------------|
G  ---------------55---5555--|
D  ---77---8888---55---5555--|
A  ---77---8888---33---3333--|
E  ---55---6666--------------|

Chorus:
[ Tab from: http://www.guitaretab.com/a/against-all-authority/51325.html ]
e  ------------------------------|
B  ------------------------------|
G  ---10-10----5555---33---------|
D  ---10-10----5555---33---3333--|
A  ----8--8----3333---11---3333--|
E  ------------------------1111--|

e  ----------------------------------------|
B  ----------------------------------------|
G  ---10-10----5555---33333333---55555555--|
D  ---10-10----5555---33333333---55555555--|
A  ----8--8----3333---11111111---33333333--|
E  ----------------------------------------|

From here repeat everything from the beginning.

Ending part:

e  ---------------------------|
B  ---------------------------|
G  --------5555---55----------|
D  ---33---5555---55---3333---|    X 2
A  ---33---3333---33---3333---|
E  ---11---------------1111---|

e  ---------------------------|
B  ---------------------------|
G  --------5----5-------------|
D  ---3----5----5----3--------|    X 2
A  ---3----3----3----3--------|
E  ---1--------------1--------|

e  ---------------------------|
B  ---------------------------|
G  --------5555---55----------|
D  ---33---5555---55---3333---|    X 2
A  ---33---3333---33---3333---|
E  ---11---------------1111---|
Related for Daddys Little Girl tab