Guitaretab - guitar tabs
Song name
# A B C D E F G H I J K L M N O P Q R S T U V W X Y Z

Against All Authority - Walking Revolution tab

----------------------------------------------------------------------------
		Walking Recolution - Against All Authority
----------------------------------------------------------------------------
Tabbed by:
Email:wrdales@comcast.net

Tuning:standard
[ Tab from: http://www.guitaretab.com/a/against-all-authority/80206.html ]
e|-----------------------------------------------------------------------|
B|-----------------------------------------------------------------------|
G|--9-9*--------------9-9*--------------------------------9----8---9-----|
D|--9-9*-----7-7*-----9-9*-----7-7*-----9-9*-----7-7*-----9----8---9-----|
A|--7-7*(8)--7-7*-----7-7*(8)--7-7*-----9-9*-----7-7*-----7(4)-6---7(4)--|
E|-----------5-5*(8)-----------5-5*(8)--7-7*(8)--5-5*(8)-----------------|
      
e|-----------------------------------------------------------------------|
B|-----------------------------------------------------------------------|
G|--9-------------9--------------------------7----8---9------------------|
D|--9------7------9------7------9------7-----7----8---9------------------|
A|--7(8)---7------7(8)---7------9------7-----9(4)-6---7(4)---------------|
E|---------5(8)----------5(8)---7(8)---5(8)------------------------------|

(#) repeat a bunch of times

| /  slide up
| \  slide down
| h  hammer-on
| p  pull-off
| ~  vibrato
| +  harmonic
| x  Mute note
===========================================================================
Related for Walking Revolution tab