Song name
# A B C D E F G H I J K L M N O P Q R S T U V W X Y Z

Against Me - Problems tab

okay so i didnt put down the lead parts but this is the basic rhythm part:

Intro: Just strike open on all strings 4 times.

Verse

e----------------------|
B----------------------|
G-----4-----4----------|
D--4--4--4--4----------|
A--4--2--4--2----------|
E--2-----2-------------|

Chorus

e----------------------|
B----------------------|
G-----4--6--4----------|
D--4--4--6--4----------|
A--4--2--4--2----------|
E--2-------------------|

Pre-Chorus (play before second chorus)

e----------------------|
B----------------------|
G--8--10--11--6--4-----|
D--8--10--11--6--4-----|
A--6--8---9---4--2-----|
E----------------------|

Just figure out the order using the parts.
Tap to rate this tab
# A B C D E F G H I J K L M N O P Q R S T U V W X Y Z