Song name
# A B C D E F G H I J K L M N O P Q R S T U V W X Y Z

Against Me - Justin tab

--------------------------------------------------------------
                 Against Me! - Justin
--------------------------------------------------------------
By: Kurt Z.
Intro
e|----------------3------------------------------------------|
B|----3-----1-----3------------------------------------------|
G|----2-----0-----0------------------------------------------|
D|----0-----2------------------------------------------------|
A|----------3------------------------------------------------|
E|-----------------------------------------------------------|
Verse
e|-----------------------------------------------------------|
B|-----------------------------------------------------------|
G|----7----5-------------------------------------------------|
D|----7----5------7------------------------------------------|
A|----5----3------7------------------------------------------|
E|----------------5------------------------------------------|
Chorus
e|-----------------------------------------------------------|
B|-----------------------------------------------------------|
G|--7--9--11--12-12-11-9--12-12-11-9--12-12-11-9--7----------|
D|-----------------------------------------------------------|
A|--5--7---9--10-10--9-7--10-10--9-7--10-10--9-7--5----------|
E|-----------------------------------------------------------|
Tap to rate this tab
# A B C D E F G H I J K L M N O P Q R S T U V W X Y Z