Song name
# A B C D E F G H I J K L M N O P Q R S T U V W X Y Z

Against Me - Violence tab

Against Me!
"Violence"
Searching For a Former Clarity

tuning : standard
/ : slide
x : dead string

i'm not 100% on this, but i think it's pretty close...



   bass intro - 2x

   intro - 2x
e|------------------------------------------------------------------|
b|------------------------------------------------------------------|
g|------------------------------------------------------------------|
d|-----------------------0------------------------------------------|
a|-----------------2-------2-----0----------------------------------|
e|-3-------------------------------0-----------2-013-------------01-|
   G               Bm              Em              G

   bass verse/chorus - 6x

   bridge - 2x
e|------------------------------------------------------------------|
b|-7-------------------------------7-------------7------------------|
g|-x---9---7/9---4-4/7-------------x---9---7/9---x---7--------------|
d|-4---x---x/x---x-x/x-------------4---x---x/x---4---x--------------|
a|-----7---5/7---2-2/5-----------------7---5/7-------5--------------|
e|------------------------------------------------------------------|
   F#  E   D E   B   D             F#  E   D E   F#  D

   verse/chorus - 5x
e|------------------------------------------------------------------|
b|------------------------------------------------------------------|
g|------------------------------------------------------------------|
d|-----------------0------------------------------------------------|
a|-5---------------2---------------2--------------------------------|
e|-3-------------------------------0-----------2-013-------------01-|
   G               Bm              Em              G

   bridge - 2x

   bridge pt 2 - 2x
e|------------------------------------------------------------------|
b|------------------------------------------------------------------|
g|-7-----------------------------------------------9---------797----|
d|-x-----------------------------------------------x-------79---9---|
a|-5-----------------------------------------------7----------------|
e|------------------------------------------------------------------|
   D                                               E

   chorus - 2x
   ends on Em
Tap to rate this tab
# A B C D E F G H I J K L M N O P Q R S T U V W X Y Z