Song name
# A B C D E F G H I J K L M N O P Q R S T U V W X Y Z

Against Me - Disgust tab

-------------------------------------------------------------------------------
			     DISGUST - Against Me!
-------------------------------------------------------------------------------
Tabbed by: Justin Ross
Email: justintyme90@hotmail.com

I beleive that every Against Me! song is their best, even one as old as this. With the 
of the song its not exactly easy to tab this but this is what i get from it. Once you get 
strumming you should be able to get it. Email me if you have any corrections.

Tuning:normal


Verse 1:
        C     Am    E
e|------0-----0-----0-----1/3----------------------------------------------|
B|------1-----1-----0-----1/3----------------------------------------------|
G|------0-----2-----1-----2/4----------------------------------------------|
D|------2-----2-----2-----3/5----------------------------------------------|
A|------3-----0-----2-----3/5----------------------------------------------|
E|------0-----0-----0-----1/3----------------------------------------------|
Repeated


Verse 2:
e|------6-----7-----2-----------------------------------------------------------|
B|------6-----7-----2-----------------------------------------------------------|
G|------7-----8-----3-----------------------------------------------------------|
D|------8-----9-----4-----------------------------------------------------------|
A|------8-----9-----4-----------------------------------------------------------|
E|------6-----7-----2-----------------------------------------------------------|
Repeated


| /  slide up
| \  slide down
| h  hammer-on
| p  pull-off
| ~  vibrato
| +  harmonic
| x  Mute note
===============================================================================
Tap to rate this tab
 
# A B C D E F G H I J K L M N O P Q R S T U V W X Y Z