Song name
# A B C D E F G H I J K L M N O P Q R S T U V W X Y Z

Against Me - Stop tab

Band: Against me!
Song: Stop
Album: New Wave (2007)

Starts off with just vocals and drums:

Stop! Take some time to think, figure out what's important to you.
Stop! Take some time to think, figure out what's important to you.
Stop! Take some time to think, figure out what's important to you.
You gotta make a serial decision

The rest of the band kick in now:


Chorus:

              Dm
E-------------------------------------|
B-6-6-6-6-6-6-6-6-6-6-6-6-6-6-6-6-6-6-|
G-7-7-7-7-7-7-7-7-7-7-7-7-7-7-7-7-7-7-|
D-7-7-7-7-7-7-7-7-7-7-7-7-7-7-7-7-7-7-|
A-5-5-5-5-5-5-5-5-5-5-5-5-5-5-5-5-5-5-|
E-------------------------------------|

Stop take some time to think figure out what's important to you

              Bb
E-------------------------------------|
B-------------------------------------|
G-------------------------------------|
D-8-8-8-8-8-8-8-8-8-8-8-8-8-8-8-8-8-8-|
A-8-8-8-8-8-8-8-8-8-8-8-8-8-8-8-8-8-8-|
E-6-6-6-6-6-6-6-6-6-6-6-6-6-6-6-6-6-6-|

Stop take some time to think figure out what's important to you

              Gm
E-------------------------------------|
B-------------------------------------|
G-------------------------------------|
D-5-5-5-5-5-5-5-5-5-5-5-5-5-5-5-5-5-5-|
A-5-5-5-5-5-5-5-5-5-5-5-5-5-5-5-5-5-5-|
E-3-3-3-3-3-3-3-3-3-3-3-3-3-3-3-3-3-3-|

Stop TAKE SOME time to think figure out what's important to you

E--------------------------------|
B--------------------------------|
G-10-10-10-9-5-5-5-5-5-7-7-7-7-7-|
D-10-10-10-9-5-5-5-5-5-7-7-7-7-7-|
A--8--8--8-7-3-3-3-3-3-5-5-5-5-5-|
E--------------------------------|

you got to make a serial decision

Verses:

             Gm
E---------------------------------|
B---------------------------------|
G---------------------------------|
D-5-5-5-5-5-5-5-5-5-5-5-5-5-5-5-5-|
A-5-5-5-5-5-5-5-5-5-5-5-5-5-5-5-5-|
E-3-3-3-3-3-3-3-3-3-3-3-3-3-3-3-3-|
  ...     ...     ...     ...

It could be me up there in stage lights.

              Dm
E---------------------------------|
B-6-6-6-6-6-6-6-6-6-6-6-6-6-6-6-6-|
G-7-7-7-7-7-7-7-7-7-7-7-7-7-7-7-7-|
D-7-7-7-7-7-7-7-7-7-7-7-7-7-7-7-7-|
A-5-5-5-5-5-5-5-5-5-5-5-5-5-5-5-5-|
E---------------------------------|
  ...     ...     ...     ...

It could be me on the TV in you living room.

             Gm
E---------------------------------|
B---------------------------------|
G---------------------------------|
D-5-5-5-5-5-5-5-5-5-5-5-5-5-5-5-5-|
A-5-5-5-5-5-5-5-5-5-5-5-5-5-5-5-5-|
E-3-3-3-3-3-3-3-3-3-3-3-3-3-3-3-3-|
  ...     ...     ...     ...

It could be me jet setting with my band all across the world.


       Bb               C
E-----------------------------------|
B-----------------------------------|
G-3-3-3-3-3-3-3-3-3-5-5-5-5-5-5-5-5-|
D-3-3-3-3-3-3-3-3-3-5-5-5-5-5-5-5-5-|
A-1-1-1-1-1-1-1-1-1-3-3-3-3-3-3-3-3-|
E-----------------------------------|

Appearing live in concert one night only, tickets sold out.


During the Verses after the second palm muted bar of the Dm the second guitar
does this little lick:

E-------13-13-13-13-13-13-----|
B-------------------------15~-|
G-14-14-----------------------|
D-----------------------------|
A-----------------------------|
E-----------------------------|

Repeat Chorus

Repeat Verse

There I am giving candid disclosure to press in interview.
There I go on my way through the crowd up to the podium.
On behalf of our fans we'd like to accept this award.
Smile for the camera boys, gold record in hand.

Repeat Chorus

Bridge:

             Gm                             Dm
E-----------------------------------------------------------------|
B---------------------------------6-6-6-6-6-6-6-6-6-6-6-6-6-6-6-6-|
G---------------------------------7-7-7-7-7-7-7-7-7-7-7-7-7-7-7-7-|
D-5-5-5-5-5-5-5-5-5-5-5-5-5-5-5-5-7-7-7-7-7-7-7-7-7-7-7-7-7-7-7-7-|
A-5-5-5-5-5-5-5-5-5-5-5-5-5-5-5-5-5-5-5-5-5-5-5-5-5-5-5-5-5-5-5-5-|
E-3-3-3-3-3-3-3-3-3-3-3-3-3-3-3-3---------------------------------|
  ...     ...     ...     ...     ...     ...     ...     ...

All of our lives in waiting.

after the second palm muted bar of the Dm

E-------13-13-13-13-13-13-----|
B-------------------------15~-|
G-14-14-----------------------|
D-----------------------------|
A-----------------------------|
E-----------------------------|


             Gm                             Dm
E-----------------------------------------------------------------|
B---------------------------------6-6-6-6-6-6-6-6-6-6-6-6-6-6-6-6-|
G---------------------------------7-7-7-7-7-7-7-7-7-7-7-7-7-7-7-7-|
D-5-5-5-5-5-5-5-5-5-5-5-5-5-5-5-5-7-7-7-7-7-7-7-7-7-7-7-7-7-7-7-7-|
A-5-5-5-5-5-5-5-5-5-5-5-5-5-5-5-5-5-5-5-5-5-5-5-5-5-5-5-5-5-5-5-5-|
E-3-3-3-3-3-3-3-3-3-3-3-3-3-3-3-3---------------------------------|
  ...     ...     ...     ...     ...     ...     ...     ...

All of our lives traded for their roses and applause.

after the second palm muted bar of the Dm

E-------13-13-13-13-13-13-----|
B-------------------------15~-|
G-14-14-----------------------|
D-----------------------------|
A-----------------------------|
E-----------------------------|

              Gm
E---------------------------------|
B---------------------------------|
G---------------------------------|
D-5-5-5-5-5-5-5-5-5-5-5-5-5-5-5-5-|
A-5-5-5-5-5-5-5-5-5-5-5-5-5-5-5-5-|
E-3-3-3-3-3-3-3-3-3-3-3-3-3-3-3-3-|
  ...     ...     ...     ...
All of our lives dedicated

       Bb               C
E-----------------------------------|
B-----------------------------------|
G-3-3-3-3-3-3-3-3-3-5-5-5-5-5-5-5-5-|
D-3-3-3-3-3-3-3-3-3-5-5-5-5-5-5-5-5-|
A-1-1-1-1-1-1-1-1-1-3-3-3-3-3-3-3-3-|
E-----------------------------------|

to shoving it right back in their fucking face.

E---------|
B---------|
G-9-7-5-3-|
D-9-7-5-3-|
A-7-5-3-1-|
E---------|

After the bridge strum these four chords then go straight back into the chorus.

Stop! Take some time to think, figure out what's important to you.
Stop! Take some time to think, figure out what's important to you.
Stop! Take some time to think, figure out what's important to you.

E--------------------------------|
B--------------------------------|
G-10-10-10-9-5-5-5-5-5-7-7-7-7-7-|
D-10-10-10-9-5-5-5-5-5-7-7-7-7-7-|
A--8--8--8-7-3-3-3-3-3-5-5-5-5-5-|
E--------------------------------|

you got to make a serial decision

E-------------------------------|
B-------------------------------|
G-10-10-10-9-9-12-5-5-5-7-7-7-7-|
D-10-10-10-9-9-12-5-5-5-7-7-7-7-|
A--8--8--8-7-7-10-3-3-3-5-5-5-5-|
E-------------------------------|

I said you've got to make a serious decision.

Stop! Take some time to think.


Thats it.
Tap to rate this tab
# A B C D E F G H I J K L M N O P Q R S T U V W X Y Z