Song name
# A B C D E F G H I J K L M N O P Q R S T U V W X Y Z

Against Me - Ocean tab

-------------------------------------------------------------------------------
                         Against Me! - The Ocean
-------------------------------------------------------------------------------
Tabbed by: Alex Honeywell
Email: tabs@seigousei.net

Tuning: Standard (EADGBe)

It's not 100% accurate, but it sounds good and works with the song.  
In the song part of the solo is actually played all on the G string and with
some hammer-ons thrown in, but I found this a bit easier. I may add the actual
version in sometime.


INTRO
RIFF 1 x3
RIFF 2
RIFF 1 x2
RIFF 2
BRIDGE - INTRO
BRIDGE - RHYTHM x4
BRIDGE - OUTRO x2
SOLO


INTRO
__________________________________________________________________________________
                                                                                  |
e=|-10~~~--10------------5~~~--5----------6~~~--6----------7~~~--7-7-7-7----------|
B=|-12~~~------12--------7~~~-----7-------8~~~-----8-------7~~~--7-7-7-7----------|
G=|-11~~~----------11----7~~~--------7----6~~~--------6----4~~~--4-4-4-4----4s11--|
D=|-------------------------------------------------------------------------------|
A=|-------------------------------------------------------------------------------|
E=|-------------------------------------------------------------------------------|

RIFF 1
____________________________________________________
                                                    |
e=|-----10----------10----------10----------10------|
B=|---------12----------12----------12----------12--|
G=|-11----------11----------11----------11----------|
D=|-------------------------------------------------|
A=|-------------------------------------------------|
E=|-------------------------------------------------|
________________________________________
                                        |
e=|----5--------5--------5--------5-----|
B=|-------7--------7--------7--------7--|
G=|-7--------7--------7--------7--------|
D=|-------------------------------------|
A=|-------------------------------------|
E=|-------------------------------------|
________________________________________
                                        |
e=|----6--------6--------6--------6-----|
B=|-------8--------8--------8--------8--|
G=|-6--------6--------6--------6--------|
D=|-------------------------------------|
A=|-------------------------------------|
E=|-------------------------------------|
______________________________ ________
                            2 |      1 |
e=|-7-7--7-7--7--7-7--7--7-7--|--------|
B=|-7-7--7-7--7--7-7--7--7-7--|--------|
G=|-4-4--4-4--4--4-4--4--4-4--|--4s11--|
D=|---------------------------|--------|
A=|---------------------------|--------|
E=|---------------------------|--------|

RIFF 2
______________________________________________________________
                                                              |
e=|-7-7--777-7--777-7--777-7----222--2-2-2-2-2----555--5-5-5--|
B=|-5-5--555-5--555-5--555-5----333--3-3-3-3-3----777--7-7-7--|
G=|-4-4--444-4--444-4--444-4----444--4-4-4-4-4----777--7-7-7--|
D=|-----------------------------444--4-4-4-4-4----777--7-7-7--|
A=|-----------------------------------------------------------|
E=|-----------------------------------------------------------|
_______________________________________________________________
                                                       |       |
e=|-10~~--5--5s10--10~~--5--5s10--10~~--5--5s10--10~~--|---10--| Only play when
B=|-12~~--7--7s12--12~~--7--7s12--12~~--7--7s12--12~~--|--12---| going back to
G=|-11~~--6--6s11--11~~--6--6s11--11~~--6--6s11--11~~--|-------| RIFF 1
D=|----------------------------------------------------|-------|
A=|----------------------------------------------------|-------|
E=|----------------------------------------------------|-------|

BRIDGE - INTRO
_______________________________________
                                hold   |
e=|-101010~~~--10------------10~~~~~~--|
B=|-121212~~~------12--------12~~~~~~--|
G=|-111111~~~----------11----11~~~~~~--|
D=|------------------------------------|
A=|------------------------------------|
E=|------------------------------------|
______________________________
                              | 
e=|-10--10-10------10--10-10--| Played every now and then, you'll have to listen for it
B=|-12--12-12------12--12-12--|
G=|-11--11-11------11--11-11--|
D=|---------------------------|
A=|---------------------------|
E=|---------------------------|

BRIDGE - RHYTHM
______________________________________________
                                              |  
e=|-------------------------------------------|
B=|-------------------------------------------|
G=|-------------------------------------------|
D=|-------------------------------------------|
A=|-------------------------------------------|
E=|-7-x-7-x-7-x-x-9-10-9-7-x-7-x-7-x-x-7-9-7--|

BRIDGE - OUTRO
_________________
                 |  
e=|-5----0----2--|
B=|-5----0----3--|
G=|-5----0----4--|
D=|-7----2----4--|
A=|-7----2----2--|
E=|-5----0-------|

SOLO
_______________________________________________________________________
                                                                       |  
e=|--------------------------------------------------------------------|
B=|-s12-12-12-10-9--s7-7-7-7----5-5-5---------------------------14-----|
G=|-----------------------------------7-6-6h7p4--4-4--s16-15-16----16--|
D=|--------------------------------------------------------------------|
A=|--------------------------------------------------------------------|
E=|--------------------------------------------------------------------|
__________________________________________________________________________________
                                                                                  |
e=|-------------------------------------------------------------------------------|
B=|-14--15--14--15--17--15--14--15--17b---17b--17b--17b-17b--17b17--15--12~~~~~~--|
G=|-------------------------------------------------------------------------------|
D=|-------------------------------------------------------------------------------|
A=|-------------------------------------------------------------------------------|
E=|-------------------------------------------------------------------------------|


INTRO
RIFF 1 x3
RIFF 2
RIFF 1 x2
RIFF 2
BRIDGE - INTRO
BRIDGE - RHYTHM x4
BRIDGE - OUTRO x2
SOLO
Tap to rate this tab
# A B C D E F G H I J K L M N O P Q R S T U V W X Y Z