Song name
# A B C D E F G H I J K L M N O P Q R S T U V W X Y Z

Against Me - White Crosses tab

First ever tab.. not much but it's a great song.

E -------------------------------------------------|
B ----------------------------------------10-8-6-8-|
G -5-7-9-9-995-7--7-5---5--5-7-9-9-995-7-----------|
D --------------------7----------------------------|
A -------------------------------------------------|
E -------------------------------------------------|

E -------------------------------------------------|
B -------------------------------------------------|
G -5-7-9-9-995-7--7-5---5--5-7-9-9-7-5-7-5---5-----|
D --------------------7--------------------7-------|
A -------------------------------------------------|
E -------------------------------------------------|
Tap to rate this tab
# A B C D E F G H I J K L M N O P Q R S T U V W X Y Z