Song name
# A B C D E F G H I J K L M N O P Q R S T U V W X Y Z

Against Me - I Was A Teenage Anarchist tab

Against Me!
I Was A Teenage Anarchist.

Probobly the second time ive ever written a tab.
I figured the song out in about an hour, but im still not to sure about the leads.

Intro
Play x2
e|---------------|---------------|
B|4-4-4-3-3-3-3-3|4-4-4-3-3-3-3-3|
G|3-3-3-3-3-3-3-3|3-3-3-3-3-3-3-3|
D|---------------|---------------|
A|---------------|---------------|
E|---------------|---------------|

Verse 1
Play x8
e|---------------|---------------|
B|4-4-4-3-3-3-3-3|4-4-4-3-3-3-3-3|
G|3-3-3-3-3-3-3-3|3-3-3-3-3-3-3-3|
D|---------------|---------------|
A|---------------|---------------|
E|---------------|---------------|

Prechorus

e|---------------|---------------|---------------|---------------|
B|---------------|---------------|---------------|---------------|
G|---------------|---------------|---------------|---------------|
D|---------------|---------------|---------------|---------------|
A|---------------|8-8-8-8-8-8-8-8|6-6-6-6-6-6-6-6|5-5-5-5-5-5-5-5|
E|6-6-6-6-6-6-6-6|---------------|---------------|---------------|

e|---------------|---------------|---------------|---------------|
B|---------------|---------------|---------------|---------------|
G|---------------|---------------|---------------|---------------|
D|---------------|---------------|---------------|---------------|
A|---------------|8-8-8-8-8-8-8-8|6-6-6-6-6-6-6-6|6-6-6-6-6-6-6-6|
E|6-6-6-6-6-6-6-6|---------------|---------------|---------------|

Chorus 1
Play x2
e|---------------|-----------------------|---------------|---------------|
B|---------------|-----------------------|---------------|---------------|
G|---------------|-----------------------|---------------|---------------|
D|---------------|10-10-10-10-10-10-10-10|8-8-8-8-8-8-8-8|8-8-8-8-8-8-8-8|
A|8-8-8-8-8-8-8-8|8--8--8--8--8--8--8--8-|6-6-6-6-6-6-6-6|5-5-5-5-5-5-5-5|
E|6-6-6-6-6-6-6-6|-----------------------|---------------|---------------|

Verse 2
                                                            v sounds like this but 
is wrong
e|---------------|---------------|---------------|---------------|
B|4-4-4-3-3-3-3-3|4-4-4-3-3-3-3-3|4-4-4-3-3-3-3-3|4-4-4-3-3-0-3-4|
G|3-3-3-3-3-3-3-3|3-3-3-3-3-3-3-3|3-3-3-3-3-3-3-3|3-3-3-3-3-3-3-3|
D|---------------|---------------|---------------|---------------|
A|---------------|---------------|---------------|---------------|
E|---------------|---------------|---------------|---------------|

e|---------------|---------------|---------------|-----------------------|
B|4-4-4-3-3-3-3-3|4-4-4-3-3-3-3-3|4-4-4-3-3-3-3-3|11-11-11-11-11-11-11-11|
G|3-3-3-3-3-3-3-3|3-3-3-3-3-3-3-3|3-3-3-3-3-3-3-3|-----------------------|
D|---------------|---------------|---------------|-----------------------|
A|---------------|---------------|---------------|-----------------------|
E|---------------|---------------|---------------|-----------------------|

e|13-13-13-11-11-11-11-11-11-11|10-10-10------------------|
B|-----------------------------|---------11-11-11-11-11-11|
G|-----------------------------|--------------------------|
D|-----------------------------|--------------------------|
A|-----------------------------|--------------------------|
E|-----------------------------|--------------------------|

e|13-13-13-11-11-11-11-11-11-11|10-10-10-18-18-18-18-18-18|
B|-----------------------------|--------------------------|
G|-----------------------------|--------------------------|
D|-----------------------------|--------------------------|
A|-----------------------------|--------------------------|
E|-----------------------------|--------------------------|


e|---------------|---------------|---------------|---------------|
B|4-4-4-3-3-3-3-3|4-4-4-3-3-3-3-3|4-4-4-3-3-3-3-3|4-4-4-3-3-3-3-3|
G|3-3-3-3-3-3-3-3|3-3-3-3-3-3-3-3|3-3-3-3-3-3-3-3|3-3-3-3-3-3-3-3|
D|---------------|---------------|---------------|---------------|
A|---------------|---------------|---------------|---------------|
E|---------------|---------------|---------------|---------------|

End with this
e|---|
B|---|
G|---|
D|8-8|
A|6-5|
E|---|


Chorus 2

Play x4
e|---------------|-----------------------|---------------|---------------|
B|---------------|-----------------------|---------------|---------------|
G|---------------|-----------------------|---------------|---------------|
D|---------------|10-10-10-10-10-10-10-10|8-8-8-8-8-8-8-8|8-8-8-8-8-8-8-8|
A|8-8-8-8-8-8-8-8|8--8--8--8--8--8--8--8-|6-6-6-6-6-6-6-6|5-5-5-5-5-5-5-5|
E|6-6-6-6-6-6-6-6|-----------------------|---------------|---------------|

Solo

e|------6--|----6----|------6|
B|1/3-3---4|3-4---4-3|1/3-3--|
G|---------|---------|-------|
D|---------|---------|-------|
A|---------|---------|-------|
E|---------|---------|-------|

Verse 3

Same as Verse 2


Chorus 3

e|---------------|-----------------------|---------------|---------------|
B|---------------|-----------------------|---------------|---------------|
G|---------------|-----------------------|---------------|---------------|
D|---------------|10-10-10-10-10-10-10-10|8-8-8-8-8-8-8-8|8-8-8-8-8-8-8-8|
A|8-8-8-8-8-8-8-8|8--8--8--8--8--8--8--8-|6-6-6-6-6-6-6-6|5-5-5-5-5-5-5-5|
E|6-6-6-6-6-6-6-6|-----------------------|---------------|---------------|

Outro
Play x3
e|------6--|----6----|
B|1/3-3---4|3-4---4-3|
G|---------|---------|
D|---------|---------|
A|---------|---------|
E|---------|---------|
Tap to rate this tab
# A B C D E F G H I J K L M N O P Q R S T U V W X Y Z