Song name
# A B C D E F G H I J K L M N O P Q R S T U V W X Y Z

Against Me - I Still Love You Julie chords

Highlighted       Show chord diagrams
Intro

e|-----------------------------------------------------------------------|
B|-----------------------------------------------------------------------|
G|-----------------------------------------------------------------------|
D|-------4-4-------------4-4------------4-4------------4-4---------------|
A|-----5-----5-5-------5-----5-5------5-----5-5------5-----5-5-----------|
E|-7-7-------------7-7------------5-5------------5-5---------------------|

e|-----------------------------------------------------------------------|
B|-----------------------------------------------------------------------|
G|------4-4-------------4-4------------6-6------------6-6----------------|
D|----5-----5-5-------5-----5-5------7-----7-7------7-----7-7------------|
A|7-7-------------7-7------------9-9------------7-7----------------------|
E|-----------------------------------------------------------------------|



     Bm                D               
Last night a room full drunk, sang along to the songs 
        Em
I never had the courage to write. 
F#                   Em                     Bm               
Given the chance I'd stay in this chorus forever, 
                              D
where everything ugly in this world is sadly beautiful 
       Em             F#    Em  
in our desperate memories. 

         G            A                      Bm
No we're not going to call everyone on their shit tonight. 
     G                                 A                      Bm
Even though the half of you won't even smile the next time we pass on the 

street. 
          G        A               Bm          Bm D D Em Em G 
Maybe somehow this scam will still save us all.


           D               Bm            F# 
To save us alllllllllllllllalllllllllllllallllllllllll
   G
to save us all.   x2



e|-----------------------------------------------------------------------|
B|-----------------------------------------------------------------------|
G|-----------------------------------------------------------------------|
D|-------4-4-------------4-4------------4-4------------4-4---------------|
A|-----5-----5-5-------5-----5-5------5-----5-5------5-----5-5-----------|
E|-7-7-------------7-7------------5-5------------5-5---------------------|

e|-----------------------------------------------------------------------|
B|-----------------------------------------------------------------------|
G|-------4-4----------4-4-------666-666-666-66-6-666-666-666-66----------|
D|-----5-----5------5-----5-5---777-777-777-77-7-777-777-777-77----------|
A|-7-7----------7-7-------------999-999-999-99-7-777-777-777-77----------|
E|-----------------------------------------------------------------------|



      Bm                             D 
And I saw you dancing at a punk rock show. 
                           Em                                           
And for a moment we walked streets 
                                      F#  Em 
that everyone else had given up to 4 AM. 
       Bm                                    D
Cursed promises and spray paint marking everywhere we went, 
          Em                                F#  Em
and every direction only going as far as we let it. 

          G                 A         Bm
There are so many things we try to do truthfully, 
       G                      A               Bm
by the time it's through with us it all falls apart. 
          G        A               Bm         Bm D D Em Em G
Maybe somehow this scam will still save us all.

repeat chorus
ends on Bm
Tap to rate this tab
 
# A B C D E F G H I J K L M N O P Q R S T U V W X Y Z