Against Me - I Was A Teenage Anarchist chords

Highlighted       Show chord diagrams
Against Me! - I Was A Teenage Anarchist


Chords Used
   A#    F    D#   D    G    C  
e|-------------------------------|
B|-------------------------------|
G|------10----8----7---------5---|
D|-8----10----8----7----5----5---|
A|-8-----8----6----5----5----3---|
E|-6--------------------3--------|


Intro
e|-----------------------------------------------------------------|
B|-----------------------------------------------------------------|
G|-8-8-8-7-7-7-7-7-8-8-8-7-7-7-7-7-8-8-8-7-7-7-7-7-8-8-8-7-7-7-7-7-|
D|-8-8-8-8-8-8-8-8-8-8-8-8-8-8-8-8-8-8-8-8-8-8-8-8-8-8-8-8-8-8-8-8-|
A|-----------------------------------------------------------------|
E|-----------------------------------------------------------------|

Intro: A#

Verse:
A#
I was a teenage anarchist
Looking for a revolution
          G
I had the style, I had the ambition
Read all the authors I knew the right slogans
              A#                
There was no war but the class war
I was ready to set the world on fire
         G           
I was a teenage anarchist
Looking for a revolution

Chorus:
A#    F     D#              D       A#  
Dooooo you remember when you were young
                   F                D# (hold & pause)
And you wanted to set the world on fire
A#    F     D#           D         A#  
Dooooo you remember when you were young
A#               F                D#           D   
And you wanted to set the world on fire


A#        
I was a teenage anarchist
But the politics were too convenient
       G
In the depths of their humanity
All I saw was bloodless ideology
     A#
With freedom as their doctrine
Guess who was the new authority
        G
I was a teenage anarchist
But the politics were too convenient

Pre Chorus riff:
D# D

Chorus:
A#    F     D#              D       A#  
Dooooo you remember when you were young
                   F                D#         D
And you wanted to set the world on fire
A#    F     D#           D         A#  
Dooooo you remember when you were young
A#               F                D#              
And you wanted to set the world on fire

              A#
when you were young
                  F                D#         D
And you wanted to set the world on fire

Lead Riff
e|------6--|----6----|------6|
B|1/3-3---4|3-4---4-3|1/3-3--|
G|---------|---------|-------|
D|---------|---------|-------|
A|---------|---------|-------|
E|---------|---------|-------|

A# (play over lead riff)

        G
I was a teenage anarchist
But then the scene got too rigid
        C
It was mob mentality
They set their rifle sights on me
        D#
Narrow visions of autonomy
You want me to surrender my identity
        F
I was a teenage anarchist
      [stop]
The revolution was a lie

Pre Chorus riff:
D#  D

Chorus:
Dooooo you remember when you were young
And you wanted to set the world on fire
Dooooo you remember when you were young
And you wanted to set the world on fire
when you were young
And you wanted to set the world on fire
when you were young
And you wanted to set the world on fire

Outro
Play x3
e|------6--|----6----|
B|1/3-3---4|3-4---4-3|
G|---------|---------|
D|---------|---------|
A|---------|---------|
E|---------|---------|

A#
I was a teenage anarchist (4x)
Tap to rate this tab
 
# A B C D E F G H I J K L M N O P Q R S T U V W X Y Z