Song name
# A B C D E F G H I J K L M N O P Q R S T U V W X Y Z

Against Me - White Crosses tab

Band: Against Me!
Song: White Crosses
Album: White Crosses
Tabbed Febuary 27, 2011
By Lynn (Airbourne775)




Intro:

E|------------------------------|--------------------------------|
B|------------------------------|--------------------8/10-8---8--|
G|--5-7-9-9-9(9)-7-5--7-5----5--|--5-7-9-9-9(9)-7-5---------9----|
D|-------------------------7----|--------------------------------|
A|------------------------------|--------------------------------|
E|------------------------------|--------------------------------|

Only repeat that first little part and then..

E|-----------------------|
B|-----------------------|
G|--5-7-9-9-7-5-7-5---5--|
D|------------------7----|
A|-----------------------|
E|-----------------------|


Verse

    C                  F      G          C
E|-------------------------------------------------------|
B|-------------------------------------------------------|
G|--5------------------------------------5---------------| x2
D|--5------------------3------5----------5---------------|
A|--3------------------3------5----------3---------------|
E|---------------------1------3--------------------------|

Chorus

    Dm       G         C         F                    C       F
E|-------------------------------------------|     |-----------------|
B|-------------------------------------------|     |-----------------|
G|--7------------------5---------------------| x2  |--5--------------|
D|--7--------5---------5---------3-----------|     |--5-------3------|
A|--5--------5---------3---------3-----------|     |--3-------3------|
E|-----------3-------------------1-----------|     |----------1------|


Bridge

    Am                  F         G           C
E|---------------------------------------------------------|
B|---------------------------------------------------------|
G|--------------------------------------------5------------| x2, but do that
D|--7-------------------1---------5-----------5------------| last C in shots
A|--5-------------------1---------5-----------3------------|
E|--5-------------------3---------3------------------------|


If I did anything wrong, feel free to tell me. I think that's all of the parts... 
if I'm missing anything let me know. Enjoy.
Tap to rate this tab
 
# A B C D E F G H I J K L M N O P Q R S T U V W X Y Z