Against Me - I Was A Teenage Anarchist tab

Band: Against Me!
Song: I Was A Teenage Anarchist
Album: White Crosses
Tabbed by Airbourne775 (Lynn)
Tabbed: February 26, 2011


Intro/Verse

E|-------------------|
B|-------------------|
G|--8-8-8-7-7-7-7-7--| (repeat)
D|--8-8-8-8-8-8-8-8--|
A|-------------------|
E|-------------------|

Under the intro, the other guitar plays...

E|------------------|
B|------------------|
G|------------------| (repeat)
D|--8--------5------|
A|--x--------x------|
E|--6--------3------|

Pre-Chorus
                                             (add this before 2nd chorus)
E|---------------------------------------|   |--------|
B|---------------------------------------|   |--------|
G|-------10----8----7---------10----8----|   |--8--7--|
D|--8----x-----x----x----8----x-----x----|   |--x--x--|
A|--x----8-----6----5----x----8-----6----|   |--6--5--|
E|--6--------------------6---------------|   |--------|

Chorus

E|-----------------------|
B|-----------------------|
G|-------10----8----7----|
D|--8----10----8----x----|
A|--8----8-----6----5----|
E|--6--------------------|

Bridge

E|-----|-----------------------|
B|-----|-----------------------|
G|-----|-------5----8----10----|
D|--8--|--5----5----8----10----|
A|--8--|--5----3----6----8-----|
E|--6--|--3--------------------|


I apologize I don't know the solo, but here are the notes... just play along with the 
song to get the timing and everything else :)
Tap to rate this tab
 
# A B C D E F G H I J K L M N O P Q R S T U V W X Y Z