Guitaretab - guitar tabs
Song name
# A B C D E F G H I J K L M N O P Q R S T U V W X Y Z

Against Me - Russian Spies tab

This is my first tab so we'll see how this goes...
From the video's and tabs i've seen this is played with a Capo on the 3rd. fret but I 
tabbed it out in standard tuning..it sounds good to me at least.
*also I only tabbed the rhythm guitar (Gabel) and the number of times strummed may be 
off a little bit but i'm sure you can figure it out.*
Standard Tuning
Intro:
[ Tab from: http://www.guitaretab.com/a/against-me/292406.html ]
E-----------------------------------------------------------------------------|
B-----------------------------------------------------------------------------|
G-----------------------------------7------8 x8-------------------------------|
D------------------7-7-7-7-7-7-7----8 x8---8----------------------------------|
A-1-1-1-1-1-1-1-1-------------------8------6----------------------------------|
E-----------------------------------6-----------------------------------------|
Verse:x2
E----------------------------------------------------------------------------|
B----------------------------------------------------------------------------|
G-3 x8--8 x8-----------------------------------------------------------------|
D-3-----8--------------------------------------------------------------------|
A-1-----6--------------------------------------------------------------------|
E----------------------------------------------------------------------------|
Verse cont'd: x2
E----------------------------------------------------------------------------|
B----------------------------------------------------------------------------|
G-------8 x8--------------------3 x5---------8 x8----------------------------|
D-5 x8--8-----------------------3-----5 x5---8-------------------------------|
A-5-----6-----------------------1-----5------6-------------------------------|
E-3-----------------------------------3--------------------------------------|
Chorus: x2
E----------------------------------------------------------------------------|
B----------------------------------------------------------------------------|
G------------6x10------------------------------------------------------------|
D-5x3--6 x5--6---------------------------------------------------------------|
A-5----6-----8---------------------------------------------------------------|
E-3----8---------------------------------------------------------------------|

'Russian Spies!!!!'



It pretty much repeats after that. Again this is my first tab ladies and gentlemen so 
feel free to correct this tab or msg me with suggestions.
Related for Russian Spies tab
Russian Spies chords by Against Me