Song name
# A B C D E F G H I J K L M N O P Q R S T U V W X Y Z

Against Me - Transgender Dysphoria Blues chords

Highlighted       Show chord diagrams
 Intro
E-------------------|
B-0-0---------------|
G-0-0---------------|  x4
D-2-2--222--xxxx----|
A-2-2--222--xxxx----|
E-0-0--000--xxxx----|

Verse - Figure out strum pattern
  E           A          E          A          B
E------------------------------------------------------------------------------|
B-------------2---------------------2------------------------------------------|
G-1-----------2----------1----------2----------4-------------------------------|
D-2-----------2----------2----------2----------4-------------------------------|
A-2----------------------2---------------------2-------------------------------|
E------------------------------------------------------------------------------|

 Pre-chorus x2
   F#     A    E     A
E----------------------|
B---------2----------2-|
G---------2----1-----2-|
D--4------2----2-----2-|
A--4-----------2-------|
E--2-----------0-------|

Chorus
    E          A          C
E----------------------------|
B--------------2-------------|
G---1----------2----------5--|
D---2----------2----------5--|
A---2---------------------3--|
E---0------------------------|
Tap to rate this tab
# A B C D E F G H I J K L M N O P Q R S T U V W X Y Z