Song name
# A B C D E F G H I J K L M N O P Q R S T U V W X Y Z

Against Me - Spanish Moss tab

Against Me
Spanish Moss

Tabbed by: hamburger76
Tuning: Standard


Intro:
e|------15-15-15-13-13-13-12-12-13-13-13-12-12-12-13-12-------|
B|------------------------------------------------------------|
G|------------------------------------------------------------|
D|------------------------------------------------------------|
A|------------------------------------------------------------|
E|------------------------------------------------------------| x4
       You just need to find 
       Some place to get away
       You can forget your name
       And theres no need to
                                
e|--------10-10-10-10----|--12-12-12-12|
B|--------10-10-10-10----|--12-12-12-12|
G|-----------------------|-------------|
D|-----------------------|-------------|
A|-----------------------|-------------|
E|--------------------x8-|-------------|
       Apologise, Apologise

Interlude:
Gtr 1:
e|------------------------------------------------------------|
B|------------------------------------------------------------|
G|-----12-12-12-10-10-10-9-9-10-10-10-9-9-9-10-9--------------|
D|------------------------------------------------------------|
A|------------------------------------------------------------|
E|------------------------------------------------------------|

Gtr 2:
                  C
e|---------------------------|
B|---------------------------|
G|-----------------7---------|
D|-----------------10--------|
A|-----------------10--------|
E|-----------------8---------|        
            Whoa-oo.....

Verse 1:
                   C
e|---------------------------|
B|---------------------------|
G|-----------------7---------|
D|-----------------10--------|
A|-----------------10--------|
E|-----------------8---------| x8
     It could be a good life
     It could be such a very good life

                     F                     Dm      F
e|-------------------5---------------------5--------5-------|
B|-------------------6---------------------6--------6-------|
G|-------------------5---------------------7--------5-------|
D|-------------------7---------------------7--------7-------|
A|-------------------8---------------------5--------8-------|
E|----------------------------------------------------------|
   We could find a place for just me and you
          
                    C
e|---------------------------|
B|---------------------------|
G|-----------------7---------|
D|-----------------10--------|
A|-----------------10--------|
E|-----------------8---------| x8
                Need some place to stay safe, 
                Need some place to stay safe and warm.

                     F                     Dm      F
e|-------------------5---------------------5--------5-------|
B|-------------------6---------------------6--------6-------|
G|-------------------5---------------------7--------5-------|
D|-------------------7---------------------7--------7-------|
A|-------------------8---------------------5--------8-------|
E|----------------------------------------------------------|
     Why dont we deserve the same?

Chorus:
Gtr 1:
e|------------------------------------------------------------|
B|------------------------------------------------------------|
G|-----12-12-12-10-10-10-9-9-10-10-10-9-9-9-10-9--------------|
D|------------------------------------------------------------|
A|------------------------------------------------------------|
E|------------------------------------------------------------| x3

Gtr 2:
                   C                      Bb                         F
e|--------------------------------------------------------------------------|
B|--------------------------------------------------------------------------|
G|-----------------7-----------------------7-------------------------10-----|
D|-----------------10----------------------8-------------------------10-----|
A|-----------------10----------------------8-------------------------8------|
E|-----------------8-----------------------6--------------------------------|
  You just need to find some place to get away. You can forget your name

Gtr 1 + 2:
                           Dm
e|-------------------------5---------|
B|-------------------------6---------|
G|-------------------------7---------|
D|-------------------------7---------|
A|-------------------------5---------|
E|-----------------------------------|
   And theres no need to apologise

Interlude:
Gtr 1:
e|------------------------------------------------------------|
B|------------------------------------------------------------|
G|-----12-12-12-10-10-10-9-9-10-10-10-9-9-9-10-9--------------|
D|------------------------------------------------------------|
A|------------------------------------------------------------|
E|------------------------------------------------------------|

Gtr 2:
                  C
e|---------------------------|
B|---------------------------|
G|-----------------7---------|
D|-----------------10--------|
A|-----------------10--------|
E|-----------------8---------|        
            Whoa-oo.....

Verse 2:
                   C
e|---------------------------|
B|---------------------------|
G|-----------------7---------|
D|-----------------10--------|
A|-----------------10--------|
E|-----------------8---------| x8
     Look into the Spanish moss
     Let your mind conjure up old ghosts

                     F                     Dm      F
e|-------------------5---------------------5--------5-------|
B|-------------------6---------------------6--------6-------|
G|-------------------5---------------------7--------5-------|
D|-------------------7---------------------7--------7-------|
A|-------------------8---------------------5--------8-------|
E|----------------------------------------------------------|
     Ride your bike through lost Florida streets
        
                    C
e|---------------------------|
B|---------------------------|
G|-----------------7---------|
D|-----------------10--------|
A|-----------------10--------|
E|-----------------8---------| x8
                Everything weve said and done 
                Can be so easily forgotten

                     F                     Dm      F
e|-------------------5---------------------5--------5-------|
B|-------------------6---------------------6--------6-------|
G|-------------------5---------------------7--------5-------|
D|-------------------7---------------------7--------7-------|
A|-------------------8---------------------5--------8-------|
E|----------------------------------------------------------|
     You can always change who you are!

Chorus:
Gtr 1:
e|------------------------------------------------------------|
B|------------------------------------------------------------|
G|-----12-12-12-10-10-10-9-9-10-10-10-9-9-9-10-9--------------|
D|------------------------------------------------------------|
A|------------------------------------------------------------|
E|------------------------------------------------------------| x3

Gtr 2:
                   C                      Bb                         F
e|--------------------------------------------------------------------------|
B|--------------------------------------------------------------------------|
G|-----------------7-----------------------7-------------------------10-----|
D|-----------------10----------------------8-------------------------10-----|
A|-----------------10----------------------8-------------------------8------|
E|-----------------8-----------------------6--------------------------------|
  You just need to find some place to get away. You can forget your name

Gtr 1 + 2:
                           Dm
e|-------------------------5---------|
B|-------------------------6---------|
G|-------------------------7---------|
D|-------------------------7---------|
A|-------------------------5---------|
E|-----------------------------------|
   And theres no need to apologise

Interlude:
Gtr 1:
e|------------------------------------------------------------|
B|------------------------------------------------------------|
G|-----12-12-12-10-10-10-9-9-10-10-10-9-9-9-10-9--------------|
D|------------------------------------------------------------|
A|------------------------------------------------------------|
E|------------------------------------------------------------|

Gtr 2:
                  C
e|---------------------------|
B|---------------------------|
G|-----------------7---------|
D|-----------------10--------|
A|-----------------10--------|
E|-----------------8---------|        
            Whoa-oo.....

Bridge:
                      E                              F
e|--------------------------------------------------------------------------|
B|--------------------------------------------------------------------------|
G|--------------------9------------------------------10---------------------|
D|--------------------9------------------------------10---------------------|
A|--------------------7------------------------------8----------------------|
E|--------------------------------------------------------------------------|
  I caught a glimpse of this life, it could be such a very good life.
   
   Dm                             with dist: G  G  F  G  F  G  G  F  G  F
e|----------------------------------------|--------------------------------|
B|----------------------------------------|--------------------------------|
G|-10-------------------------------------|-12-12-10-12-10-12-12-10-12-10--|
D|-12-------------------------------------|-12-12-10-12-10-12-12-10-12-10--|
A|-12-------------------------------------|-10-10-8--10-8--10-10-8--10-8---|
E|-10-------------------------------------|--------------------------------| 
   We could find a place for just me and you.

                      E                                    F
e|--------------------------------------------------------------------------|
B|--------------------------------------------------------------------------|
G|--------------------9------------------------------------10---------------|
D|--------------------9------------------------------------10---------------|
A|--------------------7------------------------------------8----------------|
E|--------------------------------------------------------------------------|
  But its not yours to keep. Yeah the truth will tear your heart out
   
       Dm                       with dist:  G  G  F  G  F  G  G  F  G  F
e|----------------------------------------|--------------------------------|
B|----------------------------------------|--------------------------------|
G|------10--------------------------------|-12-12-10-12-10-12-12-10-12-10--|
D|------12--------------------------------|-12-12-10-12-10-12-12-10-12-10--|
A|------12--------------------------------|-10-10-8--10-8--10-10-8--10-8---|
E|------10--------------------------------|--------------------------------| 
   In a world run by gangsters youre stuck standing in a bread line.

Chorus:
Gtr 1:
e|------------------------------------------------------------|
B|------------------------------------------------------------|
G|-----12-12-12-10-10-10-9-9-10-10-10-9-9-9-10-9--------------|
D|------------------------------------------------------------|
A|------------------------------------------------------------|
E|------------------------------------------------------------| x3

Gtr 2:
                   C                      Bb                         F
e|--------------------------------------------------------------------------|
B|--------------------------------------------------------------------------|
G|-----------------7-----------------------7-------------------------10-----|
D|-----------------10----------------------8-------------------------10-----|
A|-----------------10----------------------8-------------------------8------|
E|-----------------8-----------------------6--------------------------------|
  You just need to find some place to get away. You can forget your name

Gtr 1 + 2:
                           Dm
e|-------------------------5---------|
B|-------------------------6---------|
G|-------------------------7---------|
D|-------------------------7---------|
A|-------------------------5---------|
E|-----------------------------------|
   And theres no need to apologise, apologise

End on C.
Tap to rate this tab
# A B C D E F G H I J K L M N O P Q R S T U V W X Y Z