Song name
# A B C D E F G H I J K L M N O P Q R S T U V W X Y Z

Against Me - True Trans Soul Rebel tab

First time tabbing a song by ear

Standard Tuning

Capo on 3rd!!!

INTRO
Guitar 1:
e|--------------------------------|--------------------------------|
B|--------------------------------|--------------------------------|
G|--------------------------------|--------------------------------|
D|--------------------------------|--------------------------------|
A|-----0-2---0---0~---------------|-----0-2---0-----------3-----2--|
E|-3-----------3------------------|-3-----------3---0--------------|
                   Woo-oo!

e|--------------------------------|--------------------------------|
B|--------------------------------|--------------------------------|
G|--------------------------------|--------------------------------|
D|---------------0~---------------|--------------------------------|
A|-----0-2---0--------------------|-----0-2---0-----------3-----2--|
E|-3-----------3------------------|-3-----------3---0--------------|
                   Woo-oo!

Guitar 2:
e|--------------------------------|--------------------------------|
B|--------------------------------|--------------------------------|
G|-----------------7--------------|-----------------5--------------|
D|-5-x8------------7-x8-----------|-5-x8------------5-x8-----------|
A|-5---------------5--------------|-5---------------3--------------|
E|-3------------------------------|-3------------------------------|
                   Woo-oo!

e|--------------------------------|--------------------------------|
B|--------------------------------|--------------------------------|
G|-----------------7--------------|-----------------5--------------|
D|-5-x8------------7-x8-----------|-5-x8------------5-x8-----------|
A|-5---------------5--------------|-5---------------3--------------|
E|-3------------------------------|-3------------------------------|
                   Woo-oo!

VERSE
Guitar 1:
e|--------------------------------|-0------------------------------|
B|-3------------------------------|-1------------------------------|
G|-0------------------------------|-2------------------------------|
D|-0-x16--------------------------|-2-x16--------------------------|
A|-2------------------------------|-0------------------------------|
E|-3------------------------------|--------------------------------|
 All dressed up and nowhere to go...

e|-0------------------------------|--------------------------------|
B|-0---------------3--------------|-1------------------------------|
G|-0---------------2--------------|-0------------------------------|
D|-2-x8------------0-x8-----------|-2-x16--------------------------|
A|-2------------------------------|-3------------------------------|
E|-0------------------------------|--------------------------------|
 Walking the streets all alone...

e|--------------------------------|-0------------------------------|
B|-3------------------------------|-1------------------------------|
G|-0------------------------------|-2------------------------------|
D|-0-x16--------------------------|-2-x16--------------------------|
A|-2------------------------------|-0------------------------------|
E|-3------------------------------|--------------------------------|
 Another night to wish that you could forget...

e|-0------------------------------|--------------------------------|
B|-0---------------3--------------|-1------------------------------|
G|-0---------------2--------------|-0-------------(-Guitar 2:-)----|
D|-2-x8------------0-x8-----------|-2-x16---------(-5-5-5-9---7---)|
A|-2------------------------------|-3------------------------------|
E|-0------------------------------|--------------------------------|
 Making yourself up as you go along.              Who's gonna take you

CHORUS PART 1
Guitar 1:
e|--------------------------------|--------------------------------|
B|-3------------------------------|-1------------------------------|
G|-0------------------------------|-0------------------------------|
D|-0-x16--------------------------|-2-x16--------------------------|
A|-2------------------------------|-3------------------------------|
E|-3------------------------------|--------------------------------|
 home tonight, who's gonna take you home? Who's gonna take you

e|--------------------------------|--------------------------------|
B|-3------------------------------|-1------------------------------|
G|-0------------------------------|-0------------------------------|
D|-0-x16--------------------------|-2-x16--------------------------|
A|-2------------------------------|-3------------------------------|
E|-3------------------------------|--------------------------------|
 home tonight, who's gonna take you home?

Guitar 2:
e|--------------------------------|--------------------------------|
B|--------------------------------|--------------------------------|
G|-----------------------------7-7|--------------------------------|
D|-9-9-9-9-9-9-9-9-5-5-5-5-9-9----|-5-5-5-5-5-5-5-5-5-5-5-5-9-9-7-7|
A|--------------------------------|--------------------------------|
E|--------------------------------|--------------------------------|
 home tonight, who's gonna take you home? Who's gonna take you

e|--------------------------------|--------------------------------|
B|--------------------------------|--------------------------------|
G|-----------------------------7-7|--------------------------------|
D|-9-9-9-9-9-9-9-9-5-5-5-5-9-9----|-5-5-5-5-5-5-5-5-5-5-5-5-5-5-5-5|
A|--------------------------------|--------------------------------|
E|--------------------------------|--------------------------------|
 home tonight, who's gonna take you home?


CHORUS PART 2
Guitar 1:
e|-0------------------------------|--------------------------------|
B|-0------------------------------|-3---------------1--------------|
G|-0------------------------------|-0---------------0--------------|
D|-2-x16--------------------------|-0-x8------------2-x8-----------|
A|-2------------------------------|-2---------------3--------------|
E|-0------------------------------|-3------------------------------|
 Does god bless your transsexual heart,

e|--------------------------------|-0------------------------------|
B|-3---------------3--------------|-0------------------------------|
G|-0---------------2--------------|-0------------------------------|
D|-0-x8------------0-x8-----------|-2-x16--------------------------|
A|-2------------------------------|-2------------------------------|
E|-3------------------------------|-0------------------------------|
true trans soul rebel?

Guitar 2:
e|--------------------------------|--------------------------------|
B|--------------------------------|--------------------------------|
G|--------------------------------|-----------------5--------------|
D|-2-x16--------------------------|-5-x8------------5-x8-----------|
A|-2------------------------------|-5---------------3--------------|
E|-0------------------------------|-3------------------------------|
 Does god bless your transsexual heart,

e|--------------------------------|--------------------------------|
B|--------------------------------|--------------------------------|
G|-----------------7--------------|-9------------------------------|
D|-5-x8------------7-x8-----------|-9-x16--------------------------|
A|-5---------------5--------------|-7------------------------------|
E|-3------------------------------|-0------------------------------|
true trans soul rebel?

PRE-VERSE
Guitar 1:
e|--------------------------------|--------------------------------|
B|--------------------------------|--------------------------------|
G|--------------------------------|--------------------------------|
D|---------------0~---------------|--------------------------------|
A|-----0-2---0--------------------|-----0-2---0-----------3-----2--|
E|-3-----------3------------------|-3-----------3---0--------------|
                   Woo-oo!

e|--------------------------------|--------------------------------|
B|--------------------------------|--------------------------------|
G|--------------------------------|--------------------------------|
D|---------------0~---------------|--------------------------------|
A|-----0-2---0--------------------|-----0-2---0-----------3-----2--|
E|-3-----------3------------------|-3-----------3---0--------------|
                   Woo-oo!

Guitar 2:
e|--------------------------------|--------------------------------|
B|--------------------------------|--------------------------------|
G|-----------------7--------------|-----------------5--------------|
D|-5-x8------------7-x8-----------|-5-x8------------5-x8-----------|
A|-5---------------5--------------|-5---------------3--------------|
E|-3------------------------------|-3------------------------------|
                   Woo-oo!

e|--------------------------------|--------------------------------|
B|--------------------------------|--------------------------------|
G|-----------------7--------------|-----------------5--------------|
D|-5-x8------------7-x8-----------|-5-x8------------5-x8-----------|
A|-5---------------5--------------|-5---------------3--------------|
E|-3------------------------------|-3------------------------------|
                   Woo-oo!

VERSE
Guitar 1:
e|--------------------------------|-0------------------------------|
B|-3------------------------------|-1------------------------------|
G|-0------------------------------|-2------------------------------|
D|-0-x16--------------------------|-2-x16--------------------------|
A|-2------------------------------|-0------------------------------|
E|-3------------------------------|--------------------------------|
 Once you were born, you were already dead...

e|-0------------------------------|--------------------------------|
B|-0---------------3--------------|-1------------------------------|
G|-0---------------2--------------|-0------------------------------|
D|-2-x8------------0-x8-----------|-2-x16--------------------------|
A|-2------------------------------|-3------------------------------|
E|-0------------------------------|--------------------------------|
 You sleep with a gun beside your bed...

e|--------------------------------|-0------------------------------|
B|-3------------------------------|-1------------------------------|
G|-0------------------------------|-2------------------------------|
D|-0-x16--------------------------|-2-x16--------------------------|
A|-2------------------------------|-0------------------------------|
E|-3------------------------------|--------------------------------|
 You follow through to the obvious end...

e|-0------------------------------|--------------------------------|
B|-0---------------3--------------|-1~-----------------------------|
G|-0---------------2--------------|-0~------------(-Guitar 2:-)----|
D|-2-x8------------0-x8-----------|-2~------------(-5-5-5-9---7--)-|
A|-2------------------------------|-3~-----------------------------|
E|-0------------------------------|--------------------------------|
 See your veins wide open, you bleed it out.

REPEAT CHORUS PARTS 1 & 2

BRIDGE PART 1
Guitar 1:
e|--------------------------------|--------------------------------|
B|--------------------------------|--------------------------------|
G|--------------------------------|--------------------------------|
D|---------------0~---------------|--------------------------------|
A|-----0-2---0--------------------|-----0-2---0-----2-----3-----2--|
E|-3-----------3------------------|-3-----------3------------------|
                   Woo-oo!
e|--------------------------------|--------------------------------|
B|--------------------------------|--------------------------------|
G|--------------------------------|--------------------------------|
D|---------------0~---------------|--------------------------------|
A|-----0-2---0--------------------|-----0-2---0-----2~-------------|
E|-3-----------3------------------|-3-----------3------------------|
                   Woo-oo!                           Oh you should've been

Guitar 2:

e|--------------------------------|--------------------------------|
B|--------------------------------|--------------------------------|
G|-----------------7--------------|-----------------5--------------|
D|-5-x8------------7-x8-----------|-5-x8------------5-x8-----------|
A|-5---------------5--------------|-5---------------3--------------|
E|-3------------------------------|-3------------------------------|
                   Woo-oo!

e|--------------------------------|--------------------------------|
B|--------------------------------|--------------------------------|
G|-----------------7--------------|-----------------5--------------|
D|-5-x8------------7-x8-----------|-5-x8------------5-x8-----------|
A|-5---------------5--------------|-5---------------3--------------|
E|-3------------------------------|-3------------------------------|
                   Woo-oo!                           Oh you should've been

BRIDGE PART 2
Guitar 1:
e|--------------------------------|--------------------------------|
B|-1------------------------------|-1------------------------------|
G|-2------------------------------|-0------------------------------|
D|-2-x16--------------------------|-2-x16--------------------------|
A|-0------------------------------|-3------------------------------|
E|--------------------------------|--------------------------------|
 a mother, you should've been a wife...

e|--------------------------------|--------------------------------|
B|-3---------------3--------------|-1~-----------------------------|
G|-0---------------2--------------|-0~------------(Guitar 2:)------|
D|-0-x8------------0-x8-----------|-2~------------(-5-5-5-9---7--)-|
A|-2------------------------------|-3~-----------------------------|
E|-3------------------------------|--------------------------------|
 You should've been gone from here years ago, you should be living a different life. 
Who's gonna take you

FINAL CHORUS PART 1
Guitar 1:
e|--------------------------------|--------------------------------|
B|-3------------------------------|-1------------------------------|
G|-0------------------------------|-0------------------------------|
D|-0-x16--------------------------|-2-x16--------------------------|
A|-2------------------------------|-3------------------------------|
E|-3------------------------------|--------------------------------|
 home tonight, who's gonna take you home? Who's gonna take you

e|--------------------------------|--------------------------------|
B|-3------------------------------|-1------------------------------|
G|-0------------------------------|-0------------------------------|
D|-0-x16--------------------------|-2-x16--------------------------|
A|-2------------------------------|-3------------------------------|
E|-3------------------------------|--------------------------------|
 home tonight, who's gonna take you home? Who's gonna take you

e|--------------------------------|--------------------------------|
B|-3------------------------------|-1------------------------------|
G|-0------------------------------|-0------------------------------|
D|-0-x16--------------------------|-2-x16--------------------------|
A|-2------------------------------|-3------------------------------|
E|-3------------------------------|--------------------------------|
 home tonight, who's gonna take you home?

Guitar 2:
e|--------------------------------|--------------------------------|
B|--------------------------------|--------------------------------|
G|-----------------------------7-7|--------------------------------|
D|-9-9-9-9-9-9-9-9-5-5-5-5-9-9----|-5-5-5-5-5-5-5-5-5-5-5-5-9-9-7-7|
A|--------------------------------|--------------------------------|
E|--------------------------------|--------------------------------|
 home tonight, who's gonna take you home? Who's gonna take you

e|--------------------------------|--------------------------------|
B|--------------------------------|--------------------------------|
G|-----------------------------7-7|--------------------------------|
D|-9-9-9-9-9-9-9-9-5-5-5-5-9-9----|-5-5-5-5-5-5-5-5-5-5-5-5-9-9-7-7|
A|--------------------------------|--------------------------------|
E|--------------------------------|--------------------------------|
 home tonight, who's gonna take you home? Who's gonna take you

e|--------------------------------|--------------------------------|
B|--------------------------------|--------------------------------|
G|-----------------------------7-7|--------------------------------|
D|-9-9-9-9-9-9-9-9-5-5-5-5-9-9----|-5-5-5-5-5-5-5-5-5-5-5-5-5-5-5-5|
A|--------------------------------|--------------------------------|
E|--------------------------------|--------------------------------|
 home tonight, who's gonna take you home?

FINAL CHORUS PART 2
Guitar 1:
e|-0------------------------------|--------------------------------|
B|-0------------------------------|-3---------------1--------------|
G|-0------------------------------|-0---------------0--------------|
D|-2-x16--------------------------|-0-x8------------2-x8-----------|
A|-2------------------------------|-2---------------3--------------|
E|-0------------------------------|-3------------------------------|
 Does god bless your transsexual heart,

e|--------------------------------|-0------------------------------|
B|-3---------------3--------------|-0------------------------------|
G|-0---------------2--------------|-0------------------------------|
D|-0-x8------------0-x8-----------|-2-x16--------------------------|
A|-2------------------------------|-2------------------------------|
E|-3------------------------------|-0------------------------------|
true trans soul rebel?

e|--------------------------------|--------------------------------|
B|-3---------------3--------------|-1------------------------------|
G|-0---------------2--------------|-0------------------------------|
D|-0-x8------------0-x8-----------|-2-x16--------------------------|
A|-2------------------------------|-3------------------------------|
E|-3------------------------------|--------------------------------|
true trans soul rebel!

Guitar 2:
e|--------------------------------|--------------------------------|
B|--------------------------------|--------------------------------|
G|--------------------------------|-----------------5--------------|
D|-2-x16--------------------------|-5-x8------------5-x8-----------|
A|-2------------------------------|-5---------------3--------------|
E|-0------------------------------|-3------------------------------|
 Does god bless your transsexual heart,

e|--------------------------------|--------------------------------|
B|--------------------------------|--------------------------------|
G|-----------------7--------------|-9------------------------------|
D|-5-x8------------7-x8-----------|-9-x16--------------------------|
A|-5---------------5--------------|-7------------------------------|
E|-3------------------------------|-0------------------------------|
true trans soul rebel?

e|--------------------------------|--------------------------------|
B|--------------------------------|--------------------------------|
G|-----------------7--------------|-5------------------------------|
D|-5-x8------------7-x8-----------|-5-x16--------------------------|
A|-5---------------5--------------|-3------------------------------|
E|-3------------------------------|--------------------------------|
True trans soul rebel!

OUTRO
Guitar 1:
e|--------------------------------|--------------------------------|
B|--------------------------------|--------------------------------|
G|-----------------7-----5--------|--------------------------------|
D|-5-x8------------7-x4--5-x4--5~-|--------------------------------|
A|-5---------------5-----3-----5~-|--------------------------------|
E|-3---------------------------3~-|--------------------------------|

Guitar 2:
e|--------------------------------|--------------------------------|
B|--------------------------------|--------------------------------|
G|--------------------------------|--------------------------------|
D|--------------------------------|--------------------------------|
A|-----0-2---0-----5---3---2------|--------------------------------|
E|-3-----------3---------------3~-|--------------------------------|


That's it! Feedback is more than welcome.
Tap to rate this tab
# A B C D E F G H I J K L M N O P Q R S T U V W X Y Z