Song name
# A B C D E F G H I J K L M N O P Q R S T U V W X Y Z

Against Me - Pints Of Guinness Make You Strong tab

sounds awfully western folk. it's great. pick 1st and 5ths in the bass. strum the
chords in treble. pick or pop the bass with your thumb and  alternatingly and
quickly strum the chord downstroke then upstroke with your fingers. chords the
chords are Am, C, Am, G

            Am
|--------------------------------------|
|---1-1---1-1---1-1---1-1---1-1---1-1--|
|---2-2---2-2---2-2---2-2---2-2---2-2--|
|---2-2---2-2---2-2---2-2---2-2---2-2--|
|-0-----------0-----------0------------|
|-------0-----------0-----------0------|

                 C
|---------------------------------------------------|
|----1-1---1-1---1-1---1-1---1-1---1-1---1-1---1-1--|
|----2-2---0-0---0-0---0-0---0-0---0-0---0-0---0-0--|
|----2-2---0-0---2-2---2-2---2-2---2-2---2-2---2-2--|
|-0------2-----3-----------3-----------3------------|
|--------------------3-----------3-----------3------|

                 Am
|---------------------------------------------------|
|----1-1---1-1---1-1---1-1---1-1---1-1---1-1---1-1--|
|----2-2---0-0---2-2---2-2---2-2---2-2---2-2---2-2--|
|----2-2---0-0---2-2---2-2---2-2---2-2---2-2---2-2--|
|-3------2-----0-----------0-----------0------------|
|--------------------0-----------0-----------0------|

               G
|-------------------------------------------------------------|
|----1-1-----1-1---0-0---0-0---0-0---0-0---0-0-----0-0---0-0--|
|----2-2-----0-0---0-0---0-0---0-0---0-0---0-0-----0-0---0-0--|
|----2-2-----0-0---0-0---0-0---0-0---0-0---0-0-----0-0---0-0--|
|-0------0h2-----------2-----------2-----------2h3-----2------|
|----------------3-----------3-----------3--------------------|

Tap to rate this tab
# A B C D E F G H I J K L M N O P Q R S T U V W X Y Z