Song name
# A B C D E F G H I J K L M N O P Q R S T U V W X Y Z

Against Me - Impact tab

STANDARD TUNING

INTRO:

  1---2---3---4---1---2---3---4---1---2---3---4---1---2---3---4---

e --------------------------------------------------------3-------|
b 1---0---1---0---1---0---1---0---1---1---1---1---1---1---3-------|
g --------------------------------2---2---2---2-------------------|
d 2---2---2---2---2---2---2---2---3---3---3---3---2---2-----------|
a 3---3---3---3---0---0---0---0---3---3---3---3---3---3---2-------|
E --------------------------------1---1---1---1-----------3-------|

VERSE:
  1---2---3---4---1---2---3---4---1---2---3---4---1---2---3---4---

e --------------------------------------------------------33333333
b 1100110011001100110011001100110011111111111111111100110033333333
g --------------------------------2222222222222222----------------|
d 22222222222222222222222222222222333333333333333322222222--------|
a 3333333333333333000000000000000033333333333333333333333322222222
E --------------------------------1111111111111111--------33333333

CHORUS:
  1---2---3---4---1---2---3---4---1---2---3---4---1---2---3---4---

e --------------------------------3333333333333333----------------
b 0000000000000000111111111111111133333333333333331111111111111111
g ------------------------------------------------3333333333333333-|
d 22222222222222222222222222222222----------------3333333333333333-|
a 3333333333333333333333333333333322222222222222223333333333333333
E --------------------------------33333333333333331111111111111111

END RIFF:
  1---2---3---4---1---2---3---4---1---2---3---4---1---2---3---4---

e --------------------------------3~------------------------------|
b 0~--------------1~--------------3~--------------1~--------------|
g ------------------------------------------------3~--------------|
d 2~--------------2~------------------------------3~--------------|
a 3~--------------3~--------------2~--------------3~--------------|
E --------------------------------3~--------------1~--------------|

e ----------------------------------------------------------------|
b 0~--------------------------------------------------------------|
g ---------------------------- (let ring) ------------------------|
d 2~--------------------------------------------------------------|
a 3~--------------------------------------------------------------|
E ----------------------------------------------------------------|


INTRO
VERSE  2X
CHORUS 3X
VERSE  2X
CHORUS 3X
END RIFF
Tap to rate this tab
# A B C D E F G H I J K L M N O P Q R S T U V W X Y Z