Song name
# A B C D E F G H I J K L M N O P Q R S T U V W X Y Z

Against Me - Ed Is Sexy tab

Tuning- Standard

Intro
e|---------|
b|---------|
g|-7-7---7-|
d|-7-7---7-|
a|-5-5---5-|
e|---------|
repeated several times

Verse 1
e|--------|--------------------|--------|
b|--------|--------------------|--------|
g|-7------|-7----------------7-|-7------|
d|-7----5-|-7----9/7----5----7-|-7----5-|
a|-5----5-|-5----9/7----5----5-|-5----5-|
e|------3-|------7/5----3------|------3-|

Verse 2
e|------------------|
b|------------------|
g|-----------7------|
d|-9----7----7----5-|
a|-9----7----5----5-|
e|-7----5---------3-|

Bridge
e|-------------|
b|-------------|
g|-7--9--7--11-| repeat 3x
d|-x--x--x--x--|
a|-5--7--5--9--|
e|-------------|

e|-----------|
b|--------15-|
g|-12--11--x-|
d|--x--x--12-|
a|-10--9-----|
e|-----------|

Verse 3
e|------------------|
b|------------------|
g|-----------7------|
d|-9----7----7----5-|
a|-9----7----5----5-|
e|-7----5---------3-|

Outro
e|---------|
b|---------|
g|-7-7---7-|
d|-7-7---7-|
a|-5-5---5-|
e|---------|
repeated several times
Tap to rate this tab
 
# A B C D E F G H I J K L M N O P Q R S T U V W X Y Z