Song name
# A B C D E F G H I J K L M N O P Q R S T U V W X Y Z

Against Me - Turn Those Clapping Hands Into Angry Balled Fists tab

Tuning- Standard
p= pull off
h= hammer on

Intro
e|----------|-2----2---------------2-----7-|
b|----------|-3-------3--3----3-------3----|
g|----------|-4----------4----4------------|
d|----------|------------------------------|
a|-2p0-h2p0-|------------------------------|
e|----------|------------------------------|

Verse
e|---------------------|
b|---------------------|
g|-4--------------4----|
d|-4----4----2----4----|
a|-2----4----2----2----|
e|------2----0---------|

Chorus/Breakdown Part
e|------------------------------------------|
b|------------------------------------------|
g|-4--6--7--9--2-----------------------4----|
d|-4--6--7--9--2----4-2-0--2----4-2-0--4----|
a|-2--4--5--7--0-----------2-----------2----|
e|-------------------------0----------------|
Tap to rate this tab
# A B C D E F G H I J K L M N O P Q R S T U V W X Y Z