Song name
# A B C D E F G H I J K L M N O P Q R S T U V W X Y Z

Against Me - Tonight Were Gonna Give It 35 tab

tuning=standard

b=bend
x=dead string

Verse
e|-----------------------|
b|-----------------------|
g|-----------------------|
d|-----------2----4------|
a|-2----4----0----2---b4-|
e|-0----2----------------|

Chorus
e|---------------------|---------------------|
b|---------------------|---------------------|
g|---------------------|-6----8----9----9----|
d|-6----4----2---------|-x----x----x----x----|
a|-4----2----0----2----|-4----6----7----7----|
e|----------------0----|---------------------|

Post-Chorus
e|---------------------|
b|---------------------|
g|---------------------|
d|---------------------|
a|-2----4----2----2----|
e|-0----2----0----0----|

That's pretty much the whole song, it goes in this pattern:
Verse
Chorus
Post-Chorus
Bridge (same as the verse, but palm muted)
Verse
Chorus
Pre-Solo (just hold E)
Solo (same chords as chorus)
Post-Chorus
Tap to rate this tab
# A B C D E F G H I J K L M N O P Q R S T U V W X Y Z