Song name
# A B C D E F G H I J K L M N O P Q R S T U V W X Y Z

Against Me - Unprotected Sex With Multiple Partners tab

Against Me!
Unprotected Sex with Multiple Partners
Searching for a Former Clarity
========================================
tabbed by eniac
========================================
Composition:
Intro
Verse
PreChorus
Chorus
Verse
PreChorus
Chorus
Solo
Verse
PreChorus
Chorus
Verse

In the intro you strum the power chords, listen for the pattern. (these are also the 
for the verse.)

Intro
e--------------------------------------|
B--------------------------------------|
G-----------77-------------------------|
D------99---77---77---55---44----------|
A------99---55---77---55---44----------|
E------77--------55---33---22----------|


The next part of the intro is added after repeating the above chords once. (the chords 
being strumed in the background.)


e--------------------------->  <--------------------|   <--------3h5p3---b5--|  playing the part before
G--------2h4-------4-------->X3<----2h4------4------|  it three times.
D----------------------4---->  <--------------------|
A--------------------------->  <--------------------|
E--------------------------->  <--------------------|


PreChorus
e--------------------------|
B--------------------------|
G--------------------------|
D-44444444-5555-7777-------|
A-44444444-5555-7777-------|
E-22222222-3333-5555-------|


Chorus
e--------------------------------------|
B--------------------------------------|
G--------------------------------------|
D----------7-7-7-7---------------------|
A-9-9-9-9--5-5-5-5--7-7-7-7--5-5--4-4--|
E-7-7-7-7-----------5-5-5-5--3-3--2-2--|


Solo
there is something being played in the background i can't quite make out)
e-------------------------------------------|
B--b5-5--3---b5-5--3------------------------|
G---------2---------2-----------------------|
D-----------------------3-4-4-3--6-4-3------|
A----------------------5-------5------5-3h4-|
E-------------------------------------------|

the last bit of the solo might be a little off but it sounds pretty close.
Tap to rate this tab
 
# A B C D E F G H I J K L M N O P Q R S T U V W X Y Z