Song name
# A B C D E F G H I J K L M N O P Q R S T U V W X Y Z

Against Me - Even At Our Worst Were Still Better Than Most The Roller tab

Help us improve GuitareTab! Take a short survey!
Against Me!
"Even At Our Worst We're Still Better Than Most (The Roller)"
Searching For A Former Clarity

Tabbed by: Garrett
Email: garrettbelair@yahoo.com

Tuning: Normal

  Intro:
e|---------------------------------------------------|
B|---------------------------------------------------|
G|-----2---2-------2---2-------2---2-------2---2-----|
D|-----3---3-------3---3-------3---3-------3---3-----|
A|---------------------------------------------------|
E|--1---1---1-0-1---1---1-0-1---1---1-0-1---1---1-0--|
    F

  Verse:
e|---------------------------------------------------|
B|---------------------------------------------------|
G|-----2---2-------2---2-------2---2-------2---2-----|
D|-----3---3-------3---3-------3---3-------3---3-----|
A|---------------------------------------------------|
E|--1---1---1-0-1---1---1-0-3---3---3-3-3---3---3-3--|
    F                       G

e|---------------------------------------------------|
B|---------------------------------------------------|
G|-----3---3-------3---3-------3---3-------3---3-----|
D|-----3---3-------3---3-------3---3-------3---3-----|
A|--0---0---0-0-0---0---0-0-1---1---1-1-1---1---1-1--|
E|---------------------------------------------------|
    A                       A#

  Intro (to Verse 2):
e|--1-----------1-----------------------0------------|
B|--1-----------1-----------3-----------1------------|
G|--2-----------2-----------3-----------0------------|
D|--3-----------3-----------3-----------2------------|
A|--3-----------x-----------1-----------3------------|
E|--1-----------3------------------------------------|
    F           G           A#          C

verse 2 is the same as the first verse
intro to the bridge is the same as intro to verse 2

  Bridge:
e|--1-----------0-----------1------------------------|
B|--1-----------1-----------1-----------3------------|
G|--2-----------0-----------2-----------3------------|
D|--3-----------2-----------3-----------3------------|
A|--3-----------3-----------3-----------1------------|
E|--1-----------------------1------------------------|
    F           C           F           A#

  Outro:
e|--1-----------0------------------------------------|
B|--1-----------1-----------7-----------3------------|
G|--2-----------0-----------7-----------3------------|
D|--3-----------2-----------7-----------3------------|
A|--3-----------3-----------5-----------1------------|
E|--1------------------------------------------------|
    F           C           D           Bb

  Outro (Part II):
e|----------------------------------------------------|
B|----------------------------------------------------|
G|--10----12----10----14----10----12----10----14------|
D|--x-----x-----x-----x-----x-----x-----x-----x-------|
A|--8-----10----8-----12----8-----10----8-----12------|
E|----------------------------------------------------|
    F     G     F     A     F     G     F     A

e|----------------------------------------------------------------|
B|----------------------------------------------------------------|
G|--15--14--12--15--14--12--15--14--12--15--14--12--15--14--12----|
D|--x---x---x---x---x---x---x---x---x---x---x---x---x---x---x-----|
A|--13--12--10--13--12--10--13--12--10--13--12--10--13--12--10----|
E|----------------------------------------------------------------|
    A#  A   G   A#  A   G   A#  A   G   A#  A   G   A#  A   G

END ON F!


Related for Even At Our Worst Were Still Better Than Most The Roller tab