Song name
# A B C D E F G H I J K L M N O P Q R S T U V W X Y Z

Against Me - From Her Lips To Gods Ears The Energizer tab

e|---2---------------------2------------------------------------------------|
B|---2---------------------3------------------------------------------------|
G|---2---------------------2--9-9-7-7-6-6-4-4-------------------------------|
D|---4-------------------0----x-x-x-x-x-x-x-x-------------------------------|
A|---4--0---0-2-0-------------7-7-5-5-4-4-2-2-------------------------------|
E|-2-2----4-------4-2-0-----------------------------------------------------|

e|---2----------------------------------------------------------------------|
B|---2----------------------------------------------------------------------|
G|---2----------------------------------------------------------------------|
D|---4-------------------2~-------------------------------------------------|
A|---4--0---0-2-0--------2~-------------------------------------------------|
E|-2-2----4-------4-2-0-----------------------------------------------------|

~ let ring

Hey. My name's Nick and I'm 16. This is my first tab so enjoy the real way to play this intro.
Tap to rate this tab
# A B C D E F G H I J K L M N O P Q R S T U V W X Y Z