Song name
# A B C D E F G H I J K L M N O P Q R S T U V W X Y Z

Against Me - Exhaustion tab

----------------------------------------------------------------------------
			     Exhaustion - Against Me!
----------------------------------------------------------------------------
Tabbed by: Pabashe
Email: pabashe@hotmail.com

Tuning: Standard

Intro:
e|------------------------------------------------------------------|
B|------------------------------------------------------------------|
G|------------------------------------------------------------------|
D|-2-2-2-2-2-2-2-2-2-2-2-2------------------------------------------|
A|-2-2-2-2-2-2-2-2-2-2-2-2------------------------------------------|
E|-0-0-0-0-0-0-0-0-0-0-0-0------------------------------------------|

Verse:
e|------------------------------------------------------------------|
B|-------5-4-2------------------------------------------------------|
G|---3-4-5-4-2------------------------------------------------------|
D|-2-4-5-5-4-2-2----------------------------------------------------|
A|-2-4-5-3-2-0-2----------------------------------------------------|
E|-0-2-3-------0----------------------------------------------------|

Solo:
e|------------------------------------------------------------------|
B|--6---8---10----12----11----9----7--------------------------------|
G|----7---9----11----13----12---10---8------------------------------|
D|------------------------------------------------------------------|
A|------------------------------------------------------------------|
E|------------------------------------------------------------------|


| /  slide up
| \  slide down
| h  hammer-on
| p  pull-off
| ~  vibrato
| +  harmonic
| x  Mute note
Tap to rate this tab
# A B C D E F G H I J K L M N O P Q R S T U V W X Y Z