Song name
# A B C D E F G H I J K L M N O P Q R S T U V W X Y Z

Against Me - Tonight We Gonna Give It 35 tab

------------------------------------------------------------------------
			     Against Me! – Tonight We Give It 35%
-------------------------------------------------------------------------------
Tabbed by: Axel420
Email: awake_and_dreaming@msn.com

Tuning: Standard

Verse

   Emaj      F#min      Amaj          Bmaj

e|-0---------2----------5----------7----------------------------------------|
B|-0---------2----------5----------7----------------------------------------|
G|-1---------2----------6----------8----------------------------------------|
D|-2---------4----------7----------9----------------------------------------|
A|-2---------4----------7----------9----------------------------------------|
E|-0---------2----------5----------7h9--------------------------------------|

   We drank bottled water…

Chorus

   C#5       Bm5        A5         E5

e|--------------------------------------------------------------------------|
B|--------------------------------------------------------------------------|
G|-6---------4----------2---------------------------------------------------|
D|-6---------4----------2----------2----------------------------------------|
A|-4---------2----------0----------2----------------------------------------|
E|---------------------------------0----------------------------------------|

   And it was alright…

Interlude

Emaj F# Emaj

Our Heart…


Verse Solo

e|------------12 (12)/16-----------------------------------------------------|
B|---12b------------------12b---r10------------------------------------------|
G|----------------------------------9---11---9-8 9-11/14-13------------------|
D|---------------------------------------------------------------------------|
A|---------------------------------------------------------------------------|
E|---------------------------------------------------------------------------|


Break Down Verse PM’d


Solo

e|---9----9-------------------------------|--9----9--11----11--13------------|
B|--12b-(14)—9h10 10 10p9/5-5--55-55-5/4/0|-12b—(14)—14b--(16)-15b--(17)-----|
G|----------------------------------------|----------------------------------|
D|----------------------------------------|----------------------------------|
A|----------------------------------------|----------------------------------|
E|----------------------------------------|----------------------------------|

e|--12--12--1212-1214p12-14h16-14p12/0--------------------------------------|
B|--------------------------------------------------------------------------|
G|--------------------------------------------------------------------------|
D|--------------------------------------------------------------------------|
A|--------------------------------------------------------------------------|
E|--------------------------------------------------------------------------|

Interlude

Outro


e|-0----------------------0----0------------------------------------------------|
B|-0----------------------0--------0--------------------------------------------|
G|-1----------------------1------------1----------------------------------------|
D|-2----2--2--2--2--2--2--2---------------2-------------------------------------|
A|-2----2--2--2--2--2--2--2-----------------------------------------------------|
E|-0----0--0--0--4--0--4--0-----------------------------------------------------|

Song Order

Verse
Chorus
Interlude
Verse (w/ solo)
Chorus
Interlude
Breakdown
Verse
Chorus/Solo
Interlude
Outro
===============================================================================
Tap to rate this tab
# A B C D E F G H I J K L M N O P Q R S T U V W X Y Z