Guitaretab - guitar tabs
Song name
# A B C D E F G H I J K L M N O P Q R S T U V W X Y Z

Against Me - Tearing Down The Walls tab

Against Me!
"Tearing Down the Walls"
Vivida Vis


tuning: normal


intro/verse:
e|-------------------------------------------------|
b|-------------------------------------------------|
g|-9---9-9-9---9---9-7---7-9---9-9-9---9---9-7---7-|
d|-x---x-x-x---x---x-x---x-x---x-x-x---x---x-x---x-|
a|-7---7-7-7---7---7-5---5-7---7-7-7---7---7-5---5-|
e|-------------------------------------------------|

e|-------------------------------------------------|
b|-9---9-9-9---9-----9-9---7---7-7-7---9---9-9-9---|
g|-x---x-x-x---x-----x-x---x---x-x-x---x---x-x-x---|
d|-6---6-6-6---6-----6-6---4---4-4-4---6---6-6-6---|
a|-------------------------------------------------|
e|-------------------------------------------------|


chorus pt. 1:
e|-------------------------------------------------|
b|-------------------------------------------------|
g|-9---9-9-9---9---9-9---9-11--111111--11--1111--11|
d|-x---x-x-x---x---x-x---x-x---x-x-x---x---x-x---x-|
a|-7---7-7-7---7---7-7---7-9---9-9-9---9---9-9---9-|
e|-------------------------------------------------|
[ Tab from: http://www.guitaretab.com/a/against-me/74254.html ]
e|-------------------------------------------------|
b|-12--121212--12----1212--10--101010--9---9-9-9---|
g|-x---x-x-x---x-----x-x---x---x-x-x---x---x-x-x---|
d|-9---9-9-9---9-----9-9---7---7-7-7---6---6-6-6---|
a|-------------------------------------------------|
e|-------------------------------------------------|


chorus pt. 2:
e|-------------------------------------------------|
b|-------------------------------------------------|
g|-9---9-9-9---9---9-9---9-11--111111--11--1111--11|
d|-x---x-x-x---x---x-x---x-x---x-x-x---x---x-x---x-|
a|-7---7-7-7---7---7-7---7-9---9-9-9---9---9-9---9-|
e|-------------------------------------------------|

e|-------------------------------------------------|
b|-------------------------1010--------1010--------|
g|-7---7-7-7---7---7-7---7-x-x---------x-x---------|
d|-x---x-x-x---x---x-x---x-7-7---------7-7---------|
a|-5---5-5-5---5---5-5---5-------------------------|
e|-------------------------------------------------|


outro:
e|-------------------------------------------------|
b|-------------------------12----------------------|
g|-9-----------------------x-----------------------|
d|-x-----------------------9-----------------------|
a|-7-----------------------------------------------|
e|-------------------------------------------------|

e|-------------------------------------------------|
b|-------------------------9-----------7-----------|
g|-7-----------------------x-----------x-----------|
d|-x-----------------------6-----------4-----------|
a|-5-----------------------------------------------|
e|-------------------------------------------------|
Related for Tearing Down The Walls tab
Advertisement will be closed in 10 seconds