Guitaretab - guitar tabs
Song name
# A B C D E F G H I J K L M N O P Q R S T U V W X Y Z
Home / A / Against Me / Tsr tab

Against Me - Tsr tab

Alright I'm tabbing this out in detail cause i haven't seen any tabs on it and this is 
of my favorite songs by these guys.

what the hell.. i'll put the bass in there too

Guitar 1
E5~
B7~
G7~
D7~
A5~
E-

Guitar 2
E --- 5---5----5---5---5---5---5---5---|
B----7---7----7---7---7---7---7---7----|
D----7---7---7----7---7---7---7---7----|
A--------------------------------------|
E--------------------------------------|
The party's over......


Guitar 1
E 7~
B 7~
G 7~
D 9~
A 9~
E 7~

Guitar2
E-7---7---7---7---7---7---7---7-|
B-7---7---7---7---7---7---7---7-|
G 7---7---7---7---7---7---7---7-|
D-------------------------------|
A-------------------------------|
E-------------------------------|
A CD skipping....


Guitar 1
E-3~
B-0~
G-0~
D-0~
A-2~
E-3~

Guitar2
E---3---3---3---3---3---3---3---3-|
B---3---3---3---3---3---3---3---3-|
G---4---4---4---4---4---4---4---4-|
D---------------------------------|
A---------------------------------|
E---------------------------------|
It's the same hook repeating...


Guitar 1
E-0~--------------------------0-|
B-2~--------------------------2-|
G-2~--------------------------2-|
D-2~--------------------------2-|
A-0~--------------------------0-|
E-------------------------------|


Guitar 2
E-0---0---0---0---0---0---0---0~-|
B-2---2---2---2---2---2---2---2~-|
G-2---2---2---2---2---2---2---2~-|
D--------------------------------|
A--------------------------------|
E--------------------------------|
...Grows more grated with each passing second...


Guitar 1
E-10-10-10-10-10-10-10-10-|
B-10-10-10-10-10-10-10-10-|
G-11-11-11-11-11-11-11-11-|
D-12-12-12-12-12-12-12-12-|
A-12-12-12-12-12-12-12-12-|
E-10-10-10-10-10-10-10-10-|


Guitar 2
E---------------------------|
B-7-7-7-7-7-7-7-7-7---------|
G-7-7-7-7-7-7-7-7-7---------|
D-7-7-7-7-7-7-7-7-7---------|
A-5-5-5-5-5-5-5-5-5---------|
E---------------------------|
And the walls contain a resignation,


Guitar 1
E-7-7-7-7-7-7-7-7-|
B-7-7-7-7-7-7-7-7-|
G-7-7-7-7-7-7-7-7-|
D-9-9-9-9-9-9-9-9-|
A-9-9-9-9-9-9-9-9-|
E-7-7-7-7-7-7-7-7-|

Guitar 2
E-2-2-2-2-2-2-2-2--|
B-3-3-3-3-3-3-3-3--|
G-4-4-4-4-4-4-4-4--|
D-4-4-4-4-4-4-4-4--|
A-2-2-2-2-2-2-2-2--|
E------------------|

Bass
G------------------|
D------------------|
A2-2-2-2-2-2-2-2---|
E------------------|
Laughter and conversation!


Guitar 1
E-3-3-3-3-3-3-3-3---------|
B-3-3-3-3-3-3-3-3---------|
G-4-4-4-4-4-4-4-4---------|
D-5-5-5-5-5-5-5-5---------|
A-5-5-5-5-5-5-5-5---------|
E-3-3-3-3-3-3-3-3---------|

Guitar 2
E---------------------------|
B-12-12-12-12-12-12-12-12---|
G-12-12-12-12-12-12-12-12---|
D-12-12-12-12-12-12-12-12---|
A-10-10-10-10-10-10-10-10---|
E---------------------------|

Bass
G---------------------------|
D-5-5-5-5-5-5-5-5-----------|
A---------------------------|
E---------------------------|
It was fun while it lasted, but now...


Guitar 1
E-5-5-5-5-5-5-5-5-|
B-5-5-5-5-5-5-5-5-|
G-6-6-6-6-6-6-6-6-|
D-7-7-7-7-7-7-7-7-|
A-7-7-7-7-7-7-7-7-|
E-5-5-5-5-5-5-5-5-|

Guitar 2
E-5-5-5-5-5-5-5-5-|
B-5-5-5-5-5-5-5-5-|
G-6-6-6-6-6-6-6-6-|
D-7-7-7-7-7-7-7-7-|
A-7-7-7-7-7-7-7-7-|
E-5-5-5-5-5-5-5-5-|

Bass
G-----------------|
D-----------------|
A-----------------|
E-5-5-5-5-5-5-5-5-|
We should be going


Guitar 1
E-7-7-7-7-7-7-7-7-|
B-7-7-7-7-7-7-7-7-|
G-7-7-7-7-7-7-7-7-|
D-9-9-9-9-9-9-9-9-|
A-9-9-9-9-9-9-9-9-|
E-7-7-7-7-7-7-7-7-|

Guitar 2
E-2-2-2-2-2-2-2-2-----|
B-3-3-3-3-3-3-3-3-----|
G-4-4-4-4-4-4-4-4-----|
D-4-4-4-4-4-4-4-4-----|
A-2-2-2-2-2-2-2-2-----|
E---------------------|

Bass
G---------------------|
D---------------------|
A-2-2-2-2-2-2-2-2-----|
E---------------------|
And I hope every body had a real, real good time

Guitar 1
E-10-10-10-10-10-10-10-10-|
B-10-10-10-10-10-10-10-10-|
G-11-11-11-11-11-11-11-11-|
D-12-12-12-12-12-12-12-12-|
A-12-12-12-12-12-12-12-12-|
E-10-10-10-10-10-10-10-10-|

Guitar 2
E---------------------------------|
B-7-7-7-7-7-7-7-7-----------------|
G-7-7-7-7-7-7-7-7-----------------|
D-7-7-7-7-7-7-7-7-----------------|
A-5-5-5-5-5-5-5-5-----------------|
E---------------------------------|

Bass
G----------------------------------|
D----------------------------------|
A-2-2-2-2-2-2-2-2------------------|
E----------------------------------|
The hospitalityís partaken


Guitar 1
E-3-3-3-3-3-3-3-3-|
B-3-3-3-3-3-3-3-3-|
G-4-4-4-4-4-4-4-4-|
D-5-5-5-5-5-5-5-5-|
A-5-5-5-5-5-5-5-5-|
E-3-3-3-3-3-3-3-3-|

Guitar 2
E-----------------------------------------|
B-12-12-12-12-12-12-12-12-12-12-----------|
G-12-12-12-12-12-12-12-12-12-12-----------|
D-12-12-12-12-12-12-12-12-12-12-----------|
A-10-10-10-10-10-10-10-10-10-10-----------|
E-----------------------------------------|

Bass
G---------------------|
D-5-5-5-5-5-5-5-5-----|
A---------------------|
E---------------------|
My head is flying,

Guitar 1
E-5-5-5-5-5-5-5-5-|
B-5-5-5-5-5-5-5-5-|
G-6-6-6-6-6-6-6-6-|
D-7-7-7-7-7-7-7-7-|
A-7-7-7-7-7-7-7-7-|
E-5-5-5-5-5-5-5-5-|

Guitar 2
E-5-5-5-5-5-5-5-5-|
B-5-5-5-5-5-5-5-5-|
G-6-6-6-6-6-6-6-6-|
D-7-7-7-7-7-7-7-7-|
A-7-7-7-7-7-7-7-7-|
E-5-5-5-5-5-5-5-5-|

Bass
G--------------------|
D--------------------|
A--------------------|
E-5-5-5-5-5-5-5-5----|
My heartís racing to keep up


Guitar 1
E-3~
B-3~
G-4~
D-5~
A-5~
E-3~

Guitar 2
E---
B---
G---
D-5~
A-5~
E-3~

Bass
G---
D---
A---
E-3~
But I hope I


Guitar 1
E-5~
B-5~
G-6~
D-7~
A-7~
E-5~
[ Tab from: http://www.guitaretab.com/a/against-me/77998.html ]
Guitar 2
E---
B---
G---
D-7~
A-7~
E-5~

Bass
G---
D---
A---
E-5~
Haven't over


Guitar 1
E-5~
B-7~
G-7~
D-7~
A-5~
E---

Guitar 2
E---
B---
G-7~
D-7~
A-5~
E---

Bass
G---
D---
A-5~
E---
Over done it no...

Guitar 1
E-5-5-5-5-5-5-5-5-----|
B-7-7-7-7-7-7-7-7-----|
G-7-7-7-7-7-7-7-7-----|
D---------------------|
A---------------------|
E---------------------|

Guitar 2
E---------------------|
B-7-7-7-7-7-7-7-7-----|
G-7-7-7-7-7-7-7-7-----|
D-7-7-7-7-7-7-7-7-----|
A-5-5-5-5-5-5-5-5-----|
E---------------------|

Bass
G---------------------|
D---------------------|
A-5-5-5-5-5-5-5-5-----|
E---------------------|
I hope my body can take it!

Guitar 1
E-7-7-7-7-9-10-9-7----|
B-7-7-7-7-7--7-7-7----|
G-7-7-7-7-7--7-7-7----|
D---------------------|
A---------------------|
E---------------------|

Guitar 2
E-2-2-2-2-2-2-2-2-----|
B-3-3-3-3-3-3-3-3-----|
G-4-4-4-4-4-4-4-4-----|
D-4-4-4-4-4-4-4-4-----|
A-2-2-2-2-2-2-2-2-----|
E---------------------|

Bass
G---------------------|
D---------------------|
A-2-2-2-2-2-2-2-2-----|
E---------------------|
I hope I make the ocasion

Guitar 1
E-7-7-7-7-7-7-7-7-----|
B-8-8-8-8-8-8-8-8-----|
G-9-9-9-9-9-9-9-9-----|
D-9-9-9-9-9-9-9-9-----|
A-7-7-7-7-7-7-7-7-----|
E---------------------|

Guitar 2
E-7-7-7-7-7-7-7-7-----|
B-8-8-8-8-8-8-8-8-----|
G-9-9-9-9-9-9-9-9-----|
D-9-9-9-9-9-9-9-9-----|
A-7-7-7-7-7-7-7-7-----|
E---------------------|

Bass
G----------------------|
D-2-2-2-2-2-2-2-2------|
A----------------------|
E----------------------|
Itís only this fucked up I start realizing


Guitar 1
E-5-5-5-5-5-5-5-5-|
B-5-5-5-5-5-5-5-5-|
G-6-6-6-6-6-6-6-6-|
D-7-7-7-7-7-7-7-7-|
A-7-7-7-7-7-7-7-7-|
E-5-5-5-5-5-5-5-5-|

Guitar 2
E-5-5-5-5-5-5-5-5-|
B-5-5-5-5-5-5-5-5-|
G-6-6-6-6-6-6-6-6-|
D-7-7-7-7-7-7-7-7-|
A-7-7-7-7-7-7-7-7-|
E-5-5-5-5-5-5-5-5-|

Bass
G--------------------|
D--------------------|
A--------------------|
E-5-5-5-5-5-5-5-5----|
All this living is just dying

Guitar 1
E-7-7-7-7-7-7-7-7-|
B-7-7-7-7-7-7-7-7-|
G-7-7-7-7-7-7-7-7-|
D-9-9-9-9-9-9-9-9-|
A-9-9-9-9-9-9-9-9-|
E-7-7-7-7-7-7-7-7-|

Guitar 2
E-2-2-2-2-2-2-2-2-----|
B-3-3-3-3-3-3-3-3-----|
G-4-4-4-4-4-4-4-4-----|
D-4-4-4-4-4-4-4-4-----|
A-2-2-2-2-2-2-2-2-----|
E---------------------|

Bass
G----------------------|
D----------------------|
A-2-2-2-2-2-2-2-2------|
E----------------------|
And if these are my friends, if this is my home

Guitar 1
E-10-10-10-10-10-10-10-10-|
B-10-10-10-10-10-10-10-10-|
G-11-11-11-11-11-11-11-11-|
D-12-12-12-12-12-12-12-12-|
A-12-12-12-12-12-12-12-12-|
E-10-10-10-10-10-10-10-10-|

Guitar 2
E---------------------|
B-7-7-7-7-7-7-7-7-----|
G-7-7-7-7-7-7-7-7-----|
D-7-7-7-7-7-7-7-7-----|
A-5-5-5-5-5-5-5-5-----|
E---------------------|

Bass
G---------------------|
D---------------------|
A-5-5-5-5-5-5-5-5-----|
E---------------------|
If this is how I spend my nights how I,

Guitar 1
E-3-3-3-3-3-3-3-3-|
B-3-3-3-3-3-3-3-3-|
G-4-4-4-4-4-4-4-4-|
D-5-5-5-5-5-5-5-5-|
A-5-5-5-5-5-5-5-5-|
E-3-3-3-3-3-3-3-3-|

Guitar 2
E---------------------------------|
B-12-12-12-12-12-12-12-12---------|
G-12-12-12-12-12-12-12-12---------|
D-12-12-12-12-12-12-12-12---------|
A-10-10-10-10-10-10-10-10---------|
E---------------------------------|

Bass
G----------------------|
D-5-5-5-5-5-5-5-5------|
A----------------------|
E----------------------|
Communicate, and demonstrate a

Guitar 1
E-5-5-5-5-5-5-5-5-|
B-5-5-5-5-5-5-5-5-|
G-6-6-6-6-6-6-6-6-|
D-7-7-7-7-7-7-7-7-|
A-7-7-7-7-7-7-7-7-|
E-5-5-5-5-5-5-5-5-|

Guitar 2
E-5-5-5-5-5-5-5-5-|
B-5-5-5-5-5-5-5-5-|
G-6-6-6-6-6-6-6-6-|
D-7-7-7-7-7-7-7-7-|
A-7-7-7-7-7-7-7-7-|
E-5-5-5-5-5-5-5-5-|

Bass
G--------------------|
D--------------------|
A--------------------|
E-5-5-5-5-5-5-5-5----|
Love of life

Guitar 1
E------2---0-|
B-7---3---0--|
G-7---4---0--|
D-7---4---2--|
A-5---2---2--|
E----------0-|


Guitar 2
E--------------|
B--------------|
G-7---4--------|
D-7---4----2---|
A-5---2----2---|
E-----------0--|

Bass
G------------|
D------------|
A-5---2------|
E----------0-|
My eyes roll into the back of my head

Guitar 1
E------2---0-|
B-7---3---0--|
G-7---4---0--|
D-7---4---2--|
A-5---2---2--|
E----------0-|


Guitar 2
E--------------|
B--------------|
G-7---4--------|
D-7---4----2---|
A-5---2----2---|
E-----------0--|

Bass
G------------|
D------------|
A-5---2------|
E----------0-|
If this is the last thing that I ever said



Guitar 1
E-2-2-2-2-2-2-2-2-|
B-2-2-2-2-2-2-2-2-|
G-3-3-3-3-3-3-3-3-|
D-4-4-4-4-4-4-4-4-|
A-4-4-4-4-4-4-4-4-|
E-2-2-2-2-2-2-2-2-|

Guitar 2
E---------------------|
B---------------------|
G---------------------|
D-4--4-4---4--4-4-----|    2x
A-4--4-4---4--4-4-----|
E-2--2-2---2--2-2-----|

Bass
G--------------------|
D--------------------|
A--------------------|
E-2-2-2-2-2-2-2-2----|
No, Iím not ready

Guitar 1
E-3-3-3-3-3-3-3-3-|
B-3-3-3-3-3-3-3-3-|
G-4-4-4-4-4-4-4-4-|
D-5-5-5-5-5-5-5-5-|
A-5-5-5-5-5-5-5-5-|
E-3-3-3-3-3-3-3-3-|

Guitar 2
E-3-3-3-3-3-3-3-3-|
B-3-3-3-3-3-3-3-3-|
G-4-4-4-4-4-4-4-4-|
D-5-5-5-5-5-5-5-5-|
A-5-5-5-5-5-5-5-5-|
E-3-3-3-3-3-3-3-3-|

Bass
G--------------------|
D--------------------|
A--------------------|
E-3-3-3-3-3-3-3-3----|
To die just yet

Guitar 1
E----
B-7~
G-7~
D-7~
A-5~
E----

Guitar 2
E----
B-7~
G-7~
D-7~
A-5~
E----

Bass
G----
D----
A-5~
E-----

Wooo took a whileÖ hope you enjoy
Related for Tsr tab