Song name
# A B C D E F G H I J K L M N O P Q R S T U V W X Y Z

Against Me - Mutiny On The Electronic Bay tab

Tabbed this on acoustic, sounds good enough to play with decent results.


Here's the basics of what I came up with, figure out the rhythm yourself.
e|---------------------------|---------------------------------------------|
B|---------------------------|---------------------------------------------|
G|----9----9---9-------------|---12----------------------------------------|
D|----10-h-12--9--9-h10p9h10-|---12--10--12--------------------------------|
A|----x----x---7--10---------|---10--10--12--------------------------------|
E|----8----8------8----------|-------8---10--------------------------------|
                                 G   C   D

        G                  C         D                        G
It's an into the sunrise aesthetic, let's pretend this is an informed consent.
     G                              C          D
That class division doesn't make an infantry, there is no incentive,
       C
no franchise opportunities.

e|----------------|
b|----------------|
G|-------------5--|
D|-------------3--|    Repeat
A|--2---4---5-----|
E|--0---2---3-----|

         G                                              C
And the magazine spreads of fashion models gas masks in hand, its ok, its
                    D                     C
alright these are situations we learn to live in.
         G                                C
When an invasion can bring a country its freedom,
        D                               C
then unconsciousness is true happiness, no, I don't know what to say....

I play these last chords as bar chords.  You've got the formula for the song so you can 
around with where to play certain chords for whatever sounds good to you.
Like I said, listen to the album for the rhythm, this is the idea.  Its late.  And I 
sleep.
Tap to rate this tab
# A B C D E F G H I J K L M N O P Q R S T U V W X Y Z