Song name
# A B C D E F G H I J K L M N O P Q R S T U V W X Y Z

Against Me - Reinventing Axl Rose Acoustic tab

Highlighted       Show chord diagrams
This is tabbed from Against Me!'s acoustic Crime EP.
Strum for destruction.

Intro:                              
        E               E              
e|----------------------77-7-7------|
B|------99-9-9----------99-9-9------|
G|------99-9-9----------99-9-9------|
D|------99-9-9--x4------99-9-9--x4--|
A|---7--77-7-7-------7--77-7-7------|
E|----------------------77-7-7------|

The Chords:
    G#  A   F#
e|--4---5-------------------------------|
B|--4---5-------------------------------|
G|--5---6-------------------------------|
D|--6---7---4---------------------------|
A|--6---7---4---------------------------|
E|--4---5---2---------------------------|

Verse:
E                                              G#
We want a band that play loud and hard every night.
                                                       A
That doesn't care how many people are counted at the door.
                                                            E
That would travel one million miles and ask for nothing but plate of food 

and place to rest.
              E             
They'd strike chords that cut like a knife.
                      G#
It would mean so much more than a t-shirt or a ticket stub,
                                   A
they would stop nothing short of a massacre.
                                                             E
Everyone would leave with the memory that there was no place else in the 

world and this was where they always belonged.
E               G#           A             E
Whoa        Wha-ho       Wha-ho        Wha-ho
         F#                    A              E
We would dance like no one was watching, with one fist in the air.
     F#                           A                                  E     
Our arenas just basements and bookstores across an underground America.

With this fire we could learn.  With this fire we could

e|-------------------------------------------------------------------------|
B|-------------------------------------------------------------------------|
G|----77--55--44--22---77--55--44--22--77--55--44--22---777777777----------|
D|----99--77--66--44---99--77--66--44--99--77--66--44---999999999----------|
A|-------------------------------------------------------------------------|
E|-------------------------------------------------------------------------|
                                                       
TWO THREE FOUR
E         
We want a scene where the music is free, 
        G#
and the beer is not the life of the party.
        A                                                            E
There's no need to shittalk or impress cause honesty and emotion are not 

looked down upon.
E                                                                G#
And every promise that's made and bragged would be meant if not kept.
                                                         A
We'd do it all because we have to not because we know why.
                                        E
Beyond a gender race and class we could find what really holds us back.

Whoas (same progression)
           F#        A                        E
Let's make everybody sing that they are the beginning and ending of 

everything.
     F#                        A
That we are all stronger than everything they taught us that we should fear.

End with E on "fear"

Rock.

Tap to rate this tab
# A B C D E F G H I J K L M N O P Q R S T U V W X Y Z