Song name
# A B C D E F G H I J K L M N O P Q R S T U V W X Y Z

Against Me - Eden Quest tab

----------------------------------------------------------------------------
			     Edenquest - Against Me!
----------------------------------------------------------------------------
Tabbed by:lifenotprofit
Email: lifenotprofit@hotmail.com

Tuning: standard

Figure out the strumming for yourself, it's close enough for you to figure out.
It's hard to count the number of times the notes are hit, I just kinda guessed.



e|-------------------------------------------------------------------------|
B|-------------------------------------------------------------------------|
G|-------------------------------------------------------------------------|
D|-14-14-14\12-------------------------------------------------------------|
A|-12-12-12\10--14-14-14-14-14-14-14\12--15-15-15/17--14-14-14-14-14-14-14\|
E|--------------12-12-12-12-12-12-12\10--13-13-13/15--12-12-12-12-12-12-12\|

e|-------------------------------------------------------------------------|
B|-------------------------------------------------------------------------|
G|-------------------------------------------------------------------------|
D|-------------------------------------------------------------------------|
A|12-----------------------------------------------------------------------|
E|10-----------------------------------------------------------------------|


     C           G          Em      G
e|---------------3-3-3-3-3----------3-3-3-3-3-3-3-----------------3-3-3-3-3|
B|---1-----------3-3-3-3-3----------3-3-3-3-3-3-3-----1-----------3-3-3-3-3|
G|-------------------------------------------------------------------------|
D|---2----------------------2-2-2-2-------------------2--------------------|
A|-3-3-3-2-0-----2-2-2-2-2--2-2-2-2-2-2-2-2-2-2-2---3-3-3-2-0-----2-2-2-2-2|
E|-----------3-3-3-3-3-3-3----------3-3-3-3-3-3-3-------------3-3-3-3-3-3-3|


   Em      A
e|-------------------------------------------------------------------------|
B|---------2-2-2-2-2-2-2---------------------------------------------------|
G|---------2-2-2-2-2-2-2---------------------------------------------------|
D|-2-2-2-2-2-2-2-2-2-2-2---------------------------------------------------|
A|-2-2-2-2-----------------------------------------------------------------|
E|-------------------------------------------------------------------------|


| /  slide up
| \  slide down
| h  hammer-on
| p  pull-off
| ~  vibrato
| +  harmonic
| x  Mute note
============================================================================
Tap to rate this tab
# A B C D E F G H I J K L M N O P Q R S T U V W X Y Z