Song name
# A B C D E F G H I J K L M N O P Q R S T U V W X Y Z

Against Me - Unthought Of Heros tab

----------------------------------------------------------------------------
			  Un-thought Of Heros - Against Me!
----------------------------------------------------------------------------

Tabbed by: lifenotprofit
Email: lifenotprofit@hotmail.com

Tuning: standard

Just like the rest of my tabs, you have to use a bit of imagination with this one, just 
get the strumming. And I don't know the last part yet, but if I figure it out, I'll 
the tab.


Intro/verse
e|-------------------------------------------------------------------------|
B|-------------------------------------------------------------------------|
G|---8-8---8-8-----8-8---8-8-----8-8---8-8-----8-8---8-8-------------------|
D|-------------------------------------------------------------------------|
A|-6-----6-----7/9-----9---------------------------------------------------|
E|---------------------------7/9-----9-----6/7-----7-----------------------|

Chorus
e|-------------------------------------------------------------------------|
B|-------------------------------------------------------------------------|
G|-8-8-8-8-8-8--13-13-13--8-8-8-8--15-15-15-15-15-15--15-13-12-13-12-10----|
D|-------------------------------------------------------------------------|
A|-6-6-6-6-6-6--11-11-11--6-6-6-6--13-13-13-13-13-13--13-11-10-11-10-8-----|
E|-------------------------------------------------------------------------|

Chorus 2nd part
e|-------------------------------------------------------------------------|
B|-------------------------------------------------------------------------|
G|-8-8-8-8-8-8--15-15-15-15-15-15--13-13-13-13-13-13--12-12-12--10-10-10---|
D|-------------------------------------------------------------------------|
A|-6-6-6-6-6-6--13-13-13-13-13-13--11-11-11-11-11-11--10-10-10--8--8--8----|
E|-------------------------------------------------------------------------|

| /  slide up
| \  slide down
| h  hammer-on
| p  pull-off
| ~  vibrato
| +  harmonic
| x  Mute note
============================================================================
Tap to rate this tab
# A B C D E F G H I J K L M N O P Q R S T U V W X Y Z