Song name
# A B C D E F G H I J K L M N O P Q R S T U V W X Y Z

Against Me - Piss Vinegar tab

I keep checking the site to see if anymore New Wave material is up, but you guys are
Heh... I messed around with P&V, and this is what I came up with... I'm sure its not
and maybe missing some stuff... but hey! At least its a start... Someone'll touch it up 
repost it, right? RIGHT?!

Hope it helps, guys.

...

"Piss & Vinegar" by Against Me!

|INTRO
|-----------------------|
|-----------------------|
|------------9-9--------|
|--9-9--7-7--9-9--9-9---|
|--9-9--7-7--7-7--9-9---|
|--7-7--5-5-------7-7---| x2
|
|
|---12--10--9h10p9-10-9-----------------------------------------------|
|-----------------------12/14-12-10-12-10-9-10-9-7-7h8p7h8p7----------|
|------------------------------------------------------------7--------|
|---------------------------------------------------------------------|
|---------------------------------------------------------------------|
|---------------------------------------------------------------------|
|


|VERSE
|------------------|
|------------------|
|----------9-------|
|--9---7---9---9---|
|--9---7---7---9---|
|--7---5-------7---|


|CHORUS THING
|------------------|
|------------------|
|------2---4---9---|
|--5---2---4---9---|
|--5---0---2---7---|
|--3---------------|
Tap to rate this tab
 
# A B C D E F G H I J K L M N O P Q R S T U V W X Y Z