Song name
# A B C D E F G H I J K L M N O P Q R S T U V W X Y Z

Agalloch - The Wolves Of Timberline tab

Hello, this is the main pattern played thru the whole song. Once I figure out the
lead parts I will update the tab.

          Am                       Cmaj

E|--------------------------------------------------|
B|--------------------------------------------------|
G|--------2--------2--------------0--------0--------|
D|-----0-----0-----------0-----2-----2--------2-----|
A|--0-----------0-----0-----3-----------3--------3--|
E|--------------------------------------------------|

          Am                       Cmaj

E|--------------------------------------------------|
B|-----------------------------------------0--------|
G|--------2--------2--------------0-----------0-----|
D|-----0-----0-----------0-----2-----2-----------0--|
A|--0-----------0-----0-----3-----------3-----------|
E|--------------------------------------------------|

          Am                       Cmaj

E|--------------------------------------------------|
B|--------------------------------------------------|
G|--------2--------2--------------0--------0--------|
D|-----0-----0-----------0-----2-----2--------2-----|
A|--0-----------0-----0-----3-----------3--------3--|
E|--------------------------------------------------|



E|-----------------------------------------------|
B|-----------------------------------0-----------|
G|-----------0--------------------0-----0--------|
D|--------0-----0--------------0-----------0-----|
A|-----0-----------0--------0-----------------0--|
E|--1-----------------1--3-----------------------|


(then repeat again from the start)

the ending chord is an asus2

E|-0-
B|-0-
G|-1-
D|-1-
A|-0-
E|---
Tap to rate this tab
 
# A B C D E F G H I J K L M N O P Q R S T U V W X Y Z