Song name
# A B C D E F G H I J K L M N O P Q R S T U V W X Y Z

Agalloch - To Drown chords

d-----------------------------------------------------------------------------|
a-----------------------------------------------------------------------------|
f---------------------------------3-------------------------------------------|
c---------7h8-7---3--------------------2-3------------------------------------|
g-------------------5---------5-----------------------------------------------|
D--(5)(5)-------5-----(3)(3)---(3)---3----------------------------------------|


d-----------------------------------------------------------------------------|
a-----------------------------------------------------------------------------|
f-----------------------------2h3-2------2------------------------------------|
c -------3-----5/3-2h3--------0---0---3--0---3--------------------------------|
g ----------------------------------------------------------------------------|
D(1)(1)-(1)(1)(1)-(1)-(1)(1)-(1)-(1)-(1)(1)-(1)-------------------------------|
Tap to rate this tab
# A B C D E F G H I J K L M N O P Q R S T U V W X Y Z