Song name
# A B C D E F G H I J K L M N O P Q R S T U V W X Y Z

Agalloch - Our Fortress Is Burning Ii - Bloodbirds tab

One thing I never get into is tuning. So I say just tune your guitar to get the sound
need. THIS WON'T sound EXACTLY like you hear it played by Agalloch UNLESS it's done with
amp at the correct settings along with the proper guitar tuning(So ampless 
off with saying it doesn't sound like it).

I have only been playing for a few months so bare with me here! I wanted a tab for this
so bad, it's such a beautiful song! Yet it wasn't tabbed by anyone so I did it myself.

This is all up to the verse and this is the work of just one guitar.


||------------------------------------------------------|
||-11-----------------9-8-8--------7-6-6----------------|
||----12--12--11--11----------9--9---------8-8----8/9-77|
||------------------------------------------------------|
||------------------------------------------------------|
||------------------------------------------------------|

|------------------------------------------------------------------|
|-11-----------------9-8-8--------7-6-6-------8/9------------------|
|----12--12--11--11----------9--9--------8-8-------10--9--7/8---8--|
|------------------------------------------------------------------|  x2
|------------------------------------------------------------------|
|------------------------------------------------------------------|

|---------------------------------------------------------------|
|-11-----------------9-8-8--------7-6-6-------------------------|
|----12--12--11--11----------9--9---------8-8---7/8-6-6-5/4-4---|
|---------------------------------------------------------------|
|---------------------------------------------------------------|
|---------------------------------------------------------------|


This part I'm not to good at counting the notes. So it may or it may not be what you see
So if it's not, then just play the note as long as you hear in the song.

""Repeat each note in bars below as long as the song does""
|---------------------------------------------------------------|
|---------------------------------------------------------------|
|--6(x14)---9(x14)---7(x14)---11(x10)---9(x10)---8(x10)---------|
|---------------------------------------------------------------|
|---------------------------------------------------------------|
|---------------------------------------------------------------|


--------------------------------------------------------|
--------------------------------------------------------|
--6(x14)---9(x14)---7(x14)---13(x10)---15(x10)----------|
--------------------------------------------------------|
--------------------------------------------------------|
--------------------------------------------------------|

|---------------------------------------------------------------|
|---------------------------------------------------------------|
|--6(x14)---9(x14)---7(x14)---11(x10)---9(x10)---8(x10)---------|
|---------------------------------------------------------------|
|---------------------------------------------------------------|
|---------------------------------------------------------------|

----------------------------------------------------------------------|
----------------------------------------------------------------------|
--6(x14)---9(x14)---7(x14)---12(repeat note as long as song does)-----|
----------------------------------------------------------------------|
----------------------------------------------------------------------|
----------------------------------------------------------------------|
""Repeat each note in bars above as long as the song does""


|---------------------------------------------------------------|
|--13--15-------------------12--14--------------------9--11-----|
|----------12--11---14b-------------11--10---13b----------------|
|---------------------------------------------------------------|
|---------------------------------------------------------------|
|---------------------------------------------------------------|

-------------------------------|
-------------------------------|
--9--8---10b---11b--9-9-8-8----|Play 4 times
-------------------------------|
-------------------------------|
-------------------------------|

""Repeat each note in bar below as long as the song does""
|----------------------------------------|
|----------------------------------------|
|----------------------------------------|
|----------------------------------------|Play 3 times
|---11(x16)---8(x16)---10(x16)----7(x16)-|
|----------------------------------------|
 ""Repeat each note in bar above as long as the song does""


|--------------------------------------------------------------------------|
|--------------------------------------------------------------------------|
|-------------12(x14)--8(6x)--9(6x)--13(10x)--10(14x)--15(repeat as heard)-|
|--------------------------------------------------------------------------|
|---11(x16)----------------------------------------------------------------|
|--------------------------------------------------------------------------|

|---------------------------------------------------------------|
|--12-9---10-8---13-10---11-12--14-11---13-10---12-9---13-14----|
|---------------------------------------------------------------|
|---------------------------------------------------------------|
|---------------------------------------------------------------|
|---------------------------------------------------------------|

---------------------------------------------------------------|
--16-13---14-11---13-10---11-12--12-9--11-8--10-7--9-6---------|
---------------------------------------------------------------|
---------------------------------------------------------------|Play 4 times
---------------------------------------------------------------|
---------------------------------------------------------------|

|-------------------------------------------------------------------|
|-------------------------------------------------------------------|
|--9(x24)---8(x24)---11(x24)---9(x24)---14(x24)---12(x24)---15(x24--|
|-------------------------------------------------------------------|
|-------------------------------------------------------------------|
|-------------------------------------------------------------------|

-----------------------------------------------------------------|
-----------------------------------------------------------------|
--13(x14)---9(x10)---7(x8)---11(x22)---9(x16)---8(x16)---10/11---|
-----------------------------------------------------------------|
-----------------------------------------------------------------|
-----------------------------------------------------------------|

-----------------------|
-----------------------|
--9(x10)--8(x6)--9/7---|
-----------------------|
-----------------------|
-----------------------|


---------------------------------------------------------------|
---------------------------------------------------------------|
--8(x16)--11(x12)--9(x10)----10(x10)--11(x10)--9(x10)--11(x10)-|
---------------------------------------------------------------|
---------------------------------------------------------------|
---------------------------------------------------------------|

------------------------------------------||
------------------------------------------||
---12(repeat note as long as song does)---||
------------------------------------------||
------------------------------------------||
------------------------------------------||


Then comes the verse, etc... Which some of it is the same as above. Note the "some"

Tablature Legend
----------------

 / or  \  - slide into or out of
 b  -  bend

Contact: unknownperson13@hotmail.com
Tap to rate this tab
 
# A B C D E F G H I J K L M N O P Q R S T U V W X Y Z