Song name
# A B C D E F G H I J K L M N O P Q R S T U V W X Y Z

Agalloch - Falling Snow tab

Help us improve GuitareTab! Take a short survey!
			     Falling snow - Agalloch

I play it this way. Tabbed by ear.
My first tab ever, be merciful :D

Tabbed by: Niko
Email: niko_reunanen@hotmail.com

Tuning: Standart

###Part1, play four times###
e|------------------------------------------------------13-------------------|
B|-11--------11-----11-11--------11---------11------11-----11----------------|
G|---------------------------------------------------------------------------|
D|----12-12------12-------12---------12--12-----12---------------------------|
A|---------------------------------------------------------------------------|
E|---------------------------------------------------------------------------|

e|---------------------------------------------------------------------------|
B|---15----15----15----15-15----15----15----15-------------------------------|
G|12----12----12----12-------14----14----14----14----------------------------|
D|---------------------------------------------------------------------------|
A|---------------------------------------------------------------------------|
E|---------------------------------------------------------------------------|
###End of Part1###

###Part2###
e|---------------------------------------------------------------------------|
B|-11--------11-----11-11--------11---------11------11-11--------------------|
G|---------------------------------------------------------------------------|
D|----12-12------12-------12---------12--12-----12--------12-----------------|
A|---------------------------------------------------------------------------|
E|---------------------------------------------------------------------------|

e|-------------------13------------------------------------------------------|
B|-11-------11----11----11------11-------11-11-10-8-10-----------------------|
G|---------------------------------------------------------------------------|
D|----12-12----12------------------12-12-------------------------------------|
A|---------------------------------------------------------------------------|
E|---------------------------------------------------------------------------|
###End of part2###

###Part3 (guitar that kicks in 0:52), play two times###
e|---------------------------------------------------------------------------|
B|---------------------------------------------------------------------------|
G|--7---7---7---7---5---5---5---5---8-7-5---8-7-5---8-7-5---8-7-5------------|
D|----8---8---8---8---7---7---7---7-------8-------8-------8-------8----------|
A|---------------------------------------------------------------------------|
E|---------------------------------------------------------------------------|

e|---------------------------------------------------------------------------|
B|---------------------------------------------------------------------------|
G|----7---7---7---7---5---5---5---5----8----8----8----8---7---7-10-8-7-8-----|
D|--8---8---8---8---7---7---7---7---10---10---10---10---8---8----------------|
A|---------------------------------------------------------------------------|
E|---------------------------------------------------------------------------|

e|---------------------------------------------------------------------------|
B|---------------------------------------------------------------------------|
G|--7---7---7---7---5---5---5---5-----8---7---5-------8----7---5-------------|
D|----8---8---8---8---7---7---7---7--------------8----------------8----------|
A|---------------------------------------------------------------------------|
E|---------------------------------------------------------------------------|

e|---------------------------------------------------------------------------|
B|---------------------------------------------------------------------------|
G|----7---7---7---7---5---5---5---5----8----8----8----8---7---7-10-8-7-8-----|
D|--8---8---8---8---7---7---7---7---10---10---10---10---8---8----------------|
A|---------------------------------------------------------------------------|
E|---------------------------------------------------------------------------|
###End of part3###

| /  slide up
| \  slide down
| h  hammer-on
| p  pull-off
| ~  vibrato
| +  harmonic
| x  Mute note
===============================================================================
Related for Falling Snow tab