Song name
# A B C D E F G H I J K L M N O P Q R S T U V W X Y Z

Agaw Agimat - Sun And The Rain tab

Artist: Agaw Agimat
Album:  Mantra
Song::  Sun and the Rain

. - palm mute
p - pull off
/ - slide
~ - let it ring

[intro part 1]
     
E||------10------10-----------------------------|
B||--10------10------10-------------------------|
G||----------------------9/11--11-11-11\9-9-9---|
D||---------------------------------------------|
A||---------------------------------------------|
E||---------------------------------------------|


[intro part 2]
                                           
E||---------------------------------------|
B||---------------------------------------|
G||--7--7---------------------------------|
D||--7--7----7--7----9--9---7--7--5--5----|
A||--5--5----7--7----9--9---7--7--5--5----|
E||----------5--5----7--7---5--5--3--3----|


[verse]
   
   halika salubungin ang pag-asa...
E||--------------------------------------------------|         |------------------------------------|
B||--------------------------------------------------|         |------------------------------------|
G||--------5--------5--------5-----------------5p6---|         |------------------------------------|
D||--0--0-----0--0-----0--0-----0--0-----0--0--------|   [4x]  |-0--0--5--0--0--5--0--0--5--0--0--5-| [4x] 
A||--0--0-----0--0-----0--0-----0--0-----0--0--------|         |-0--0-----0--0-----0--0-----0--0----|
E||--0--0-----0--0-----0--0-----0--0-----0--0--------|         |-0--0-----0--0-----0--0-----0--0----|

     ....     ....     ....     ....     ....                    ....     ....     ....     ....

[chorus]  

   here comes the sun and the rain....
E||---------------------------------------|
B||---------------------------------------|
G||--7--7---------------------------------|
D||--7--7----7--7----9--9---7--7--5--5----|  [5x]
A||--5--5----7--7----9--9---7--7--5--5----|
E||----------5--5----7--7---5--5--3--3----|

then repeat verse 

chorus

   here comes the sun and the rain....
E||---------------------------------------|
B||---------------------------------------|
G||--7--7---------------------------------|
D||--7--7----7--7----9--9---7--7--5--5----|  [11x]
A||--5--5----7--7----9--9---7--7--5--5----|
E||----------5--5----7--7---5--5--3--3----|


[bridge]
 
   
  pag asa...payapa
E||------------------------------| 
B||--------0~--------------------|
G||------7~----------------------|
D||----7~-------5-5-5-5-5-5-5-5--|
A||--5~---------5-5-5-5-5-5-5-5--| 
E||-------------3-3-3-3-3-3-3-3--|

                ...............

then chorus ( repeat 18x)

last chord is

E||---------------|
B||---------------|
G||--7~-----------|
D||--7~-----------|
A||--5~-----------|
E||---------------|


~end
Tap to rate this tab
# A B C D E F G H I J K L M N O P Q R S T U V W X Y Z