Song name
# A B C D E F G H I J K L M N O P Q R S T U V W X Y Z

Agent Bulldogg - Svea Rike tab

Svea Rike by: Agent Bulldogg.

First riff
E|-----------------------------------------------------------------|
B|--------1--------------------------------------------------------|
G|--2--2-----2--0-----------2--------------------------------------|
D|-----------------0--3--3-----3--2--0--------2-----------5--7--9--|
A|--------------------------------------3--3-----3--2--0--3--5--7--|
E|-----------------------------------------------------------------|


Just use these chords in this order, the strumming is not that hard to figure out.

E|--------------|
B|--------------|
G|--------------|
D|--------------|
A|--5--7--8--7--|
E|--3--5--6--5--|

Last time.
E|--------------|
B|--------------|
G|--------------|
D|--------------|
A|--5--7--10-7--|
E|--3--5--8--5--|

Well this is everything you need to play this song.

tabbed by: Themechanix100@hotmail.com

http://www.myspace.com/agentbulldogg
Tap to rate this tab
# A B C D E F G H I J K L M N O P Q R S T U V W X Y Z