Song name
# A B C D E F G H I J K L M N O P Q R S T U V W X Y Z

Agent Bulldogg - Stockholm Skinheads tab

Stockholm Skinheads by:Agent Bulldogg

Riff 1
E|------------------------------------------------------|
B|------------------------------------------------------|
G|------------------------------------------------------|
D|--4-4-4-4-4-4--7-7-7-7-7-7----------------------------|
A|--2-2-2-2-2-2--5-5-5-5-5-5--7-7-7-7-7-7--4-4-4-4-4-4--|
E|----------------------------5-5-5-5-5-5--2-2-2-2-2-2--|


Lead guitar:
E|--7-7---------------10-10-----------------------------------|
B|------7-7-7-7-------------10-10-10-10--10--7--10--7--10--7--|
G|------------------------------------------------------------|
D|------------------------------------------------------------|
A|------------------------------------------------------------|
E|------------------------------------------------------------|


Chorus:
E|-----------------------------------------------|
B|-----------------------------------------------|
G|-----------------------------------------------|
D|--4-----------2-----------4-----------2--------|
A|--2-----4-----0-----2-----2-----4-----0-----2--|
E|--------2-----------0-----------2-----------0--|

Well this is all you need to play the song.
I couldn't tab the solo but it should not be that hard to figure out.

by:themechanix100@hotmail.com
Tap to rate this tab
# A B C D E F G H I J K L M N O P Q R S T U V W X Y Z