Song name
# A B C D E F G H I J K L M N O P Q R S T U V W X Y Z

Agent Bulldogg - Tror Du Pa Det tab

Tror Du Pa Det by:Agent Bulldogg.

Intro/Verse chords: (Hard pattern to tab out.)
E|---------------|
B|---------------|
G|---------------|
D|-4-------4-----|
A|-2---4---2---4-|
E|-----2-------2-|

Chorus1:
E|---------------|
B|---------------|
G|---------------|
D|-----------4---|
A|---2---4---2---|
E|---0---2-------|

Chorus2:
E|------------------------|
B|------------------------|
G|------------------------|
D|-----------4---2-2-2-2--|
A|---2---4---2---0-0-0-0--|
E|---0---2----------------|

Bridge:
E|-----------------------------------|
B|-----------------------------------|
G|-----------------------------------|
D|---4---------------4---------------|
A|---2---4---2---4---2---4---2---4---|
E|-------2---0---2-------2---0---2---|

By:themechanix100@hotmail.com
Tap to rate this tab
# A B C D E F G H I J K L M N O P Q R S T U V W X Y Z