Song name
# A B C D E F G H I J K L M N O P Q R S T U V W X Y Z

Agent Bulldogg - Ultrasupa tab

Ultrasupa by:Agent Bulldogg

Intro:
E|------------------------------------|
B|------------------------------------|
G|-------------------------------2----|
D|-4-4-4-4-2------------2-2-2-2--0--4-|
A|-2-2-2-2-0--5--5-5-5--0-0-0-0-----2-|
E|------------3--3-3-3----------------|


Verse:
E|-----------------------------------------------------|
B|-----------------------------------------------------|
G|-----------------------------------2-----------------|
D|-4-4-4-4-2-----------------2-2-2-2-0-4-4-4-4-4-4-4-4-|
A|-2-2-2-2-0-5-5-5-5-5-5-5-5-0-0-0-0---2-2-2-2-2-2-2-2-|
E|-----------3-3-3-3-3-3-3-3---------------------------|

Chorus:
E|--------------------------|
B|--------------------------|
G|--------------------------|
D|--4-----------------------|
A|--2----5----2----4--5--4--|
E|-------3----0----2--3--2--|

Bridge:
E|-----------------------|
B|-----------------------|
G|-----------------------|
D|--4-----2--4-----2--4--|
A|--2--5--0--2--5--0--2--|
E|-----3--------3--------|
Just strum the last b chord lots of times

End riff:
E|-----------------------------------------|
B|-----------------------------------------|
G|-----------------------------------------|
D|-4-4-4-4-4-4-4-4-4-4-4-4-4-4-4-4-4---2-4-|
A|-2-2-2-2-2-2-2-2-2-2-2-2-2-2-2-2-2---0-2-|
E|-----------------------------------------|

By:themechanix100@hotmail.com
Tap to rate this tab
 
# A B C D E F G H I J K L M N O P Q R S T U V W X Y Z