Song name
# A B C D E F G H I J K L M N O P Q R S T U V W X Y Z

Agent Bulldogg - Gnallig tab

Gnallig By: Agent Bulldogg.

Main riff:
   D                      Bb      C   A
E|--------------------------------------------|
B|--------------------------------------------|
G|-2-2-2-2--2-2-2--2-2-2----------------------|
D|-0-0-0-0--0-0-0--0-0-0--3-3-3-3-5-5-2-2-2-2-|
A|------------------------1-1-1-1-3-3-0-0-0-0-|
E|--------------------------------------------|
         .                      .
Chorus:
      F    A         C
E|------------------------------|
B|------------------------------|
G|--------------2---------------|
D|---------2----0----5-5-5-5----|
A|----3----0---------3-3-3-3----|
E|----1-------------------------|

Riff after chorus:
      Bb   A    Bb   A    Bb   C
E|----------------------------------|
B|----------------------------------|
G|----------------------------------|
D|----3----2----3----2----3----5----|
A|----1----0----1----0----1----3----|
E|----------------------------------|

By: themechanix100
Tap to rate this tab
# A B C D E F G H I J K L M N O P Q R S T U V W X Y Z