Song name
# A B C D E F G H I J K L M N O P Q R S T U V W X Y Z

Agent Bulldogg - Vi Far Ingenting tab

Vi Far Ingenting By:Agent Bulldogg.

Intro:
      B
E|------------------------------------|
B|------------------------------------|
G|------------------------------------|
D|----4--------4--------4--------4----|
A|----2--------2--------2--------2----|
E|------------------------------------|

Verse:
   B        Eb       C#       F#
E|------------------------------------|
B|------------------------------------|
G|------------------------------------|
D|-4-4-4-4--8-8-8-8--6-6-6-6----------|
A|-2-2-2-2--6-6-6-6--4-4-4-4--4-4-4-4-|
E|----------------------------2-2-2-2-|

Chorus:
       C#     E      B      F# E
E|-----------------------------------|
B|-----------------------------------|
G|-----------------------------------|
D|-----6------9------4---------------|
A|-----4------7------2------4--2-----|
E|------------0-------------2--0-----|

Bridge/under solo:
       B      E      A      B
E|--------------------------------|
B|--------------------------------|
G|--------------------------------|
D|-----4------9------2------4-----|
A|-----2------7------0------2-----|
E|------------0-------------------|

By:themechanix100
Tap to rate this tab
# A B C D E F G H I J K L M N O P Q R S T U V W X Y Z